  0
SECTION
  2
HEADER
  9
$ACADVER
  1
AC1015
  9
$ACADMAINTVER
 70
     6
  9
$DWGCODEPAGE
  3
ANSI_1252
  9
$INSBASE
 10
0.0
 20
0.0
 30
0.0
  9
$EXTMIN
 10
0.0
 20
0.0
 30
0.0
  9
$EXTMAX
 10
431.8
 20
279.4
 30
0.0
  9
$LIMMIN
 10
0.0
 20
0.0
  9
$LIMMAX
 10
431.8
 20
279.4
  9
$ORTHOMODE
 70
     0
  9
$REGENMODE
 70
     1
  9
$FILLMODE
 70
     1
  9
$QTEXTMODE
 70
     0
  9
$MIRRTEXT
 70
     1
  9
$LTSCALE
 40
1.0
  9
$ATTMODE
 70
     1
  9
$TEXTSIZE
 40
4.9388888889
  9
$TRACEWID
 40
1.0
  9
$TEXTSTYLE
  7
Standard
  9
$CLAYER
  8
0
  9
$CELTYPE
  6
ByLayer
  9
$CECOLOR
 62
   256
  9
$CELTSCALE
 40
1.0
  9
$DISPSILH
 70
     0
  9
$DIMSCALE
 40
1.0
  9
$DIMASZ
 40
5.1366373698
  9
$DIMEXO
 40
2.0
  9
$DIMDLI
 40
3.75
  9
$DIMRND
 40
0.0
  9
$DIMDLE
 40
0.0
  9
$DIMEXE
 40
2.0
  9
$DIMTP
 40
0.0
  9
$DIMTM
 40
0.0
  9
$DIMTXT
 40
7.0555555556
  9
$DIMCEN
 40
2.5
  9
$DIMTSZ
 40
0.0
  9
$DIMTOL
 70
     0
  9
$DIMLIM
 70
     0
  9
$DIMTIH
 70
     1
  9
$DIMTOH
 70
     1
  9
$DIMSE1
 70
     0
  9
$DIMSE2
 70
     0
  9
$DIMTAD
 70
     1
  9
$DIMZIN
 70
     0
  9
$DIMBLK
  1

  9
$DIMASO
 70
     1
  9
$DIMSHO
 70
     1
  9
$DIMPOST
  1

  9
$DIMAPOST
  1

  9
$DIMALT
 70
     0
  9
$DIMALTD
 70
     3
  9
$DIMALTF
 40
0.0393700787
  9
$DIMLFAC
 40
1.0
  9
$DIMTOFL
 70
     1
  9
$DIMTVP
 40
0.0
  9
$DIMTIX
 70
     0
  9
$DIMSOXD
 70
     0
  9
$DIMSAH
 70
     0
  9
$DIMBLK1
  1

  9
$DIMBLK2
  1

  9
$DIMSTYLE
  2
ISO-25
  9
$DIMCLRD
 70
     0
  9
$DIMCLRE
 70
     0
  9
$DIMCLRT
 70
     0
  9
$DIMTFAC
 40
1.0
  9
$DIMGAP
 40
2.0
  9
$DIMJUST
 70
     0
  9
$DIMSD1
 70
     0
  9
$DIMSD2
 70
     0
  9
$DIMTOLJ
 70
     0
  9
$DIMTZIN
 70
     0
  9
$DIMALTZ
 70
     0
  9
$DIMALTTZ
 70
     0
  9
$DIMUPT
 70
     0
  9
$DIMDEC
 70
     2
  9
$DIMTDEC
 70
     2
  9
$DIMALTU
 70
     2
  9
$DIMALTTD
 70
     3
  9
$DIMTXSTY
  7
Standard
  9
$DIMAUNIT
 70
     0
  9
$DIMADEC
 70
     2
  9
$DIMALTRND
 40
0.0
  9
$DIMAZIN
 70
     0
  9
$DIMDSEP
 70
    44
  9
$DIMATFIT
 70
     3
  9
$DIMFRAC
 70
     0
  9
$DIMLDRBLK
  1

  9
$DIMLUNIT
 70
     2
  9
$DIMLWD
 70
    -2
  9
$DIMLWE
 70
    -2
  9
$DIMTMOVE
 70
     0
  9
$LUNITS
 70
     2
  9
$LUPREC
 70
     2
  9
$SKETCHINC
 40
1.0
  9
$FILLETRAD
 40
10.0
  9
$AUNITS
 70
     0
  9
$AUPREC
 70
     2
  9
$MENU
  1
.
  9
$ELEVATION
 40
0.0
  9
$PELEVATION
 40
0.0
  9
$THICKNESS
 40
0.0
  9
$LIMCHECK
 70
     0
  9
$CHAMFERA
 40
0.0
  9
$CHAMFERB
 40
0.0
  9
$CHAMFERC
 40
0.0
  9
$CHAMFERD
 40
0.0
  9
$SKPOLY
 70
     0
  9
$TDCREATE
 40
2458159.396645417
  9
$TDUCREATE
 40
2458159.35497875
  9
$TDUPDATE
 40
2458159.396645764
  9
$TDUUPDATE
 40
2458159.354979097
  9
$TDINDWG
 40
0.0000000116
  9
$TDUSRTIMER
 40
0.0000000116
  9
$USRTIMER
 70
     1
  9
$ANGBASE
 50
0.0
  9
$ANGDIR
 70
     0
  9
$PDMODE
 70
     0
  9
$PDSIZE
 40
-1.0
  9
$PLINEWID
 40
0.0
  9
$SPLFRAME
 70
     0
  9
$SPLINETYPE
 70
     6
  9
$SPLINESEGS
 70
     8
  9
$HANDSEED
  5
203
  9
$SURFTAB1
 70
     6
  9
$SURFTAB2
 70
     6
  9
$SURFTYPE
 70
     6
  9
$SURFU
 70
     6
  9
$SURFV
 70
     6
  9
$UCSBASE
  2

  9
$UCSNAME
  2

  9
$UCSORG
 10
0.0
 20
0.0
 30
0.0
  9
$UCSXDIR
 10
1.0
 20
0.0
 30
0.0
  9
$UCSYDIR
 10
0.0
 20
1.0
 30
0.0
  9
$UCSORTHOREF
  2

  9
$UCSORTHOVIEW
 70
     0
  9
$UCSORGTOP
 10
0.0
 20
0.0
 30
0.0
  9
$UCSORGBOTTOM
 10
0.0
 20
0.0
 30
0.0
  9
$UCSORGLEFT
 10
0.0
 20
0.0
 30
0.0
  9
$UCSORGRIGHT
 10
0.0
 20
0.0
 30
0.0
  9
$UCSORGFRONT
 10
0.0
 20
0.0
 30
0.0
  9
$UCSORGBACK
 10
0.0
 20
0.0
 30
0.0
  9
$PUCSBASE
  2

  9
$PUCSNAME
  2

  9
$PUCSORG
 10
0.0
 20
0.0
 30
0.0
  9
$PUCSXDIR
 10
1.0
 20
0.0
 30
0.0
  9
$PUCSYDIR
 10
0.0
 20
1.0
 30
0.0
  9
$PUCSORTHOREF
  2

  9
$PUCSORTHOVIEW
 70
     0
  9
$PUCSORGTOP
 10
0.0
 20
0.0
 30
0.0
  9
$PUCSORGBOTTOM
 10
0.0
 20
0.0
 30
0.0
  9
$PUCSORGLEFT
 10
0.0
 20
0.0
 30
0.0
  9
$PUCSORGRIGHT
 10
0.0
 20
0.0
 30
0.0
  9
$PUCSORGFRONT
 10
0.0
 20
0.0
 30
0.0
  9
$PUCSORGBACK
 10
0.0
 20
0.0
 30
0.0
  9
$USERI1
 70
     0
  9
$USERI2
 70
     0
  9
$USERI3
 70
     0
  9
$USERI4
 70
     0
  9
$USERI5
 70
     0
  9
$USERR1
 40
0.0
  9
$USERR2
 40
0.0
  9
$USERR3
 40
0.0
  9
$USERR4
 40
0.0
  9
$USERR5
 40
0.0
  9
$WORLDVIEW
 70
     1
  9
$SHADEDGE
 70
     3
  9
$SHADEDIF
 70
    70
  9
$TILEMODE
 70
     1
  9
$MAXACTVP
 70
    64
  9
$PINSBASE
 10
0.0
 20
0.0
 30
0.0
  9
$PLIMCHECK
 70
     0
  9
$PEXTMIN
 10
1.0000000000E+20
 20
1.0000000000E+20
 30
1.0000000000E+20
  9
$PEXTMAX
 10
-1.0000000000E+20
 20
-1.0000000000E+20
 30
-1.0000000000E+20
  9
$PLIMMIN
 10
0.0
 20
0.0
  9
$PLIMMAX
 10
420.0
 20
297.0
  9
$UNITMODE
 70
     0
  9
$VISRETAIN
 70
     1
  9
$PLINEGEN
 70
     0
  9
$PSLTSCALE
 70
     1
  9
$TREEDEPTH
 70
  3020
  9
$CMLSTYLE
  2
Standard
  9
$CMLJUST
 70
     0
  9
$CMLSCALE
 40
20.0
  9
$PROXYGRAPHICS
 70
     1
  9
$MEASUREMENT
 70
     1
  9
$CELWEIGHT
370
    -1
  9
$ENDCAPS
280
     0
  9
$JOINSTYLE
280
     0
  9
$LWDISPLAY
290
     1
  9
$INSUNITS
 70
     4
  9
$HYPERLINKBASE
  1

  9
$STYLESHEET
  1

  9
$XEDIT
290
     1
  9
$CEPSNTYPE
380
     0
  9
$PSTYLEMODE
290
     1
  9
$FINGERPRINTGUID
  2
{F3C2DB24-C1C5-4521-9B76-0FD0DD72C4E3}
  9
$VERSIONGUID
  2
{FAEB1C32-E019-11D5-929B-00C0DF256EC4}
  9
$EXTNAMES
290
     1
  9
$PSVPSCALE
 40
0.0
  9
$OLESTARTUP
290
     0
  0
ENDSEC
  0
SECTION
  2
CLASSES
  0
CLASS
  1
ACDBDICTIONARYWDFLT
  2
AcDbDictionaryWithDefault
  3
ObjectDBX Classes
 90
        0
280
     0
281
     0
  0
CLASS
  1
VISUALSTYLE
  2
AcDbVisualStyle
  3
ObjectDBX Classes
 90
     4095
280
     0
281
     0
  0
CLASS
  1
MATERIAL
  2
AcDbMaterial
  3
ObjectDBX Classes
 90
     1153
280
     0
281
     0
  0
CLASS
  1
SCALE
  2
AcDbScale
  3
ObjectDBX Classes
 90
     1153
280
     0
281
     0
  0
CLASS
  1
TABLESTYLE
  2
AcDbTableStyle
  3
ObjectDBX Classes
 90
     4095
280
     0
281
     0
  0
CLASS
  1
MLEADERSTYLE
  2
AcDbMLeaderStyle
  3
ACDB_MLEADERSTYLE_CLASS
 90
     4095
280
     0
281
     0
  0
CLASS
  1
SUN
  2
AcDbSun
  3
SCENEOE
 90
     1153
280
     0
281
     0
  0
CLASS
  1
ACDBPLACEHOLDER
  2
AcDbPlaceHolder
  3
ObjectDBX Classes
 90
        0
280
     0
281
     0
  0
CLASS
  1
LAYOUT
  2
AcDbLayout
  3
ObjectDBX Classes
 90
        0
280
     0
281
     0
  0
ENDSEC
  0
SECTION
  2
TABLES
  0
TABLE
  2
VPORT
  5
8
330
0
100
AcDbSymbolTable
 70
     1
  0
VPORT
  5
29
330
8
100
AcDbSymbolTableRecord
100
AcDbViewportTableRecord
  2
*Active
 70
     0
 10
0.0
 20
0.0
 11
1.0
 21
1.0
 12
215.9
 22
139.7
 13
0.0
 23
0.0
 14
10.0
 24
10.0
 15
10.0
 25
10.0
 16
0.0
 26
0.0
 36
1.0
 17
0.0
 27
0.0
 37
0.0
 40
279.4
 41
1.5454545455
 42
50.0
 43
0.0
 44
0.0
 50
0.0
 51
0.0
 71
     0
 72
  2000
 73
     1
 74
     3
 75
     0
 76
     0
 77
     0
 78
     0
281
     0
 65
     1
110
0.0
120
0.0
130
0.0
111
1.0
121
0.0
131
0.0
112
0.0
122
1.0
132
0.0
 79
     0
146
0.0
  0
ENDTAB
  0
TABLE
  2
LTYPE
  5
5
330
0
100
AcDbSymbolTable
 70
     6
  0
LTYPE
  5
14
330
5
100
AcDbSymbolTableRecord
100
AcDbLinetypeTableRecord
  2
ByBlock
 70
     0
  3

 72
    65
 73
     0
 40
0.0
  0
LTYPE
  5
15
330
5
100
AcDbSymbolTableRecord
100
AcDbLinetypeTableRecord
  2
ByLayer
 70
     0
  3

 72
    65
 73
     0
 40
0.0
  0
LTYPE
  5
16
330
5
100
AcDbSymbolTableRecord
100
AcDbLinetypeTableRecord
  2
Continuous
 70
     0
  3
Solid line
 72
    65
 73
     0
 40
0.0
  0
LTYPE
  5
6E
330
5
100
AcDbSymbolTableRecord
100
AcDbLinetypeTableRecord
  2
HIDDEN
 70
     0
  3
Hidden __ __ __ __ __ __ __ __ __ __ __ __ __ __
 72
    65
 73
     2
 40
1.905
 49
1.27
 74
     0
 49
-0.635
 74
     0
  0
LTYPE
  5
6F
330
5
100
AcDbSymbolTableRecord
100
AcDbLinetypeTableRecord
  2
PHANTOM
 70
     0
  3
Phantom ______  __  __  ______  __  __  ______
 72
    65
 73
     6
 40
12.7
 49
6.35
 74
     0
 49
-1.27
 74
     0
 49
1.27
 74
     0
 49
-1.27
 74
     0
 49
1.27
 74
     0
 49
-1.27
 74
     0
  0
LTYPE
  5
70
330
5
100
AcDbSymbolTableRecord
100
AcDbLinetypeTableRecord
  2
CENTER
 70
     0
  3
Center ____ _ ____ _ ____ _ ____ _ ____ _ ____
 72
    65
 73
     4
 40
10.16
 49
6.35
 74
     0
 49
-1.27
 74
     0
 49
1.27
 74
     0
 49
-1.27
 74
     0
  0
LTYPE
  5
71
330
5
100
AcDbSymbolTableRecord
100
AcDbLinetypeTableRecord
  2
CENTERX2
 70
     0
  3
Center (2x) ________  __  ________  __  _____
 72
    65
 73
     4
 40
20.32
 49
12.7
 74
     0
 49
-2.54
 74
     0
 49
2.54
 74
     0
 49
-2.54
 74
     0
  0
LTYPE
  5
72
330
5
100
AcDbSymbolTableRecord
100
AcDbLinetypeTableRecord
  2
DOT2
 70
     0
  3
Dot (.5x) ........................................
 72
    65
 73
     2
 40
0.635
 49
0.0
 74
     0
 49
-0.635
 74
     0
  0
ENDTAB
  0
TABLE
  2
LAYER
  5
2
330
0
100
AcDbSymbolTable
 70
     1
  0
LAYER
  5
10
330
2
100
AcDbSymbolTableRecord
100
AcDbLayerTableRecord
  2
0
 70
     0
 62
     7
  6
Continuous
370
    -3
390
F
  0
ENDTAB
  0
TABLE
  2
STYLE
  5
3
330
0
100
AcDbSymbolTable
 70
     3
  0
STYLE
  5
11
330
3
100
AcDbSymbolTableRecord
100
AcDbTextStyleTableRecord
  2
Standard
 70
     0
 40
0.0
 41
1.0
 50
0.0
 71
     0
 42
4.9388888889
  3
txt
  4

  0
STYLE
  5
94
330
3
100
AcDbSymbolTableRecord
100
AcDbTextStyleTableRecord
  2
SLDTEXTSTYLE0
 70
     0
 40
0.0
 41
0.605
 50
0.0
 71
     0
 42
4.9388888889
  3
TXT
  4

  0
STYLE
  5
16C
330
3
100
AcDbSymbolTableRecord
100
AcDbTextStyleTableRecord
  2
SLDTEXTSTYLE1
 70
     0
 40
0.0
 41
0.75
 50
0.0
 71
     0
 42
4.9388888889
  3
TXT
  4

  0
ENDTAB
  0
TABLE
  2
VIEW
  5
6
330
0
100
AcDbSymbolTable
 70
     0
  0
ENDTAB
  0
TABLE
  2
UCS
  5
7
330
0
100
AcDbSymbolTable
 70
     0
  0
ENDTAB
  0
TABLE
  2
APPID
  5
9
330
0
100
AcDbSymbolTable
 70
     1
  0
APPID
  5
12
330
9
100
AcDbSymbolTableRecord
100
AcDbRegAppTableRecord
  2
ACAD
 70
     0
  0
ENDTAB
  0
TABLE
  2
DIMSTYLE
  5
A
330
0
100
AcDbSymbolTable
 70
     1
100
AcDbDimStyleTable
  0
DIMSTYLE
105
27
330
A
100
AcDbSymbolTableRecord
100
AcDbDimStyleTableRecord
  2
ISO-25
 70
     0
 41
2.5
 42
0.625
 43
3.75
 44
1.25
 73
     0
 74
     0
 77
     1
 78
     8
140
2.5
141
2.5
143
0.0393700787
147
0.625
171
     3
172
     1
178
     0
271
     2
272
     2
274
     3
278
    44
283
     0
284
     8
340
11
  0
ENDTAB
  0
TABLE
  2
BLOCK_RECORD
  5
1
330
0
100
AcDbSymbolTable
 70
    25
  0
BLOCK_RECORD
  5
1F
330
1
100
AcDbSymbolTableRecord
100
AcDbBlockTableRecord
  2
*Model_Space
340
22
  0
BLOCK_RECORD
  5
1B
330
1
100
AcDbSymbolTableRecord
100
AcDbBlockTableRecord
  2
*Paper_Space
340
1E
  0
BLOCK_RECORD
  5
23
330
1
100
AcDbSymbolTableRecord
100
AcDbBlockTableRecord
  2
*Paper_Space0
340
26
  0
BLOCK_RECORD
  5
73
330
1
100
AcDbSymbolTableRecord
100
AcDbBlockTableRecord
  2
Block1
340
0
102
{BLKREFS
331
16B
102
}
  0
BLOCK_RECORD
  5
8A
330
1
100
AcDbSymbolTableRecord
100
AcDbBlockTableRecord
  2
SW_BLOCK_DIMENSION_0
340
0
102
{BLKREFS
331
96
102
}
  0
BLOCK_RECORD
  5
8D
330
1
100
AcDbSymbolTableRecord
100
AcDbBlockTableRecord
  2
_ORIGIN
340
0
102
{BLKREFS
331
92
331
102
102
}
  0
BLOCK_RECORD
  5
97
330
1
100
AcDbSymbolTableRecord
100
AcDbBlockTableRecord
  2
SW_BLOCK_DIMENSION_1
340
0
102
{BLKREFS
331
9E
102
}
  0
BLOCK_RECORD
  5
9F
330
1
100
AcDbSymbolTableRecord
100
AcDbBlockTableRecord
  2
SW_BLOCK_DIMENSION_2
340
0
102
{BLKREFS
331
A6
102
}
  0
BLOCK_RECORD
  5
A7
330
1
100
AcDbSymbolTableRecord
100
AcDbBlockTableRecord
  2
SW_BLOCK_DIMENSION_3
340
0
102
{BLKREFS
331
AE
102
}
  0
BLOCK_RECORD
  5
AF
330
1
100
AcDbSymbolTableRecord
100
AcDbBlockTableRecord
  2
SW_BLOCK_DIMENSION_4
340
0
102
{BLKREFS
331
B6
102
}
  0
BLOCK_RECORD
  5
B7
330
1
100
AcDbSymbolTableRecord
100
AcDbBlockTableRecord
  2
SW_BLOCK_DIMENSION_5
340
0
102
{BLKREFS
331
BE
102
}
  0
BLOCK_RECORD
  5
BF
330
1
100
AcDbSymbolTableRecord
100
AcDbBlockTableRecord
  2
SW_BLOCK_DIMENSION_6
340
0
102
{BLKREFS
331
C6
102
}
  0
BLOCK_RECORD
  5
C7
330
1
100
AcDbSymbolTableRecord
100
AcDbBlockTableRecord
  2
SW_BLOCK_DIMENSION_7
340
0
102
{BLKREFS
331
CE
102
}
  0
BLOCK_RECORD
  5
CF
330
1
100
AcDbSymbolTableRecord
100
AcDbBlockTableRecord
  2
SW_BLOCK_DIMENSION_8
340
0
102
{BLKREFS
331
D6
102
}
  0
BLOCK_RECORD
  5
D7
330
1
100
AcDbSymbolTableRecord
100
AcDbBlockTableRecord
  2
SW_BLOCK_DIMENSION_9
340
0
102
{BLKREFS
331
DE
102
}
  0
BLOCK_RECORD
  5
DF
330
1
100
AcDbSymbolTableRecord
100
AcDbBlockTableRecord
  2
SW_BLOCK_DIMENSION_10
340
0
102
{BLKREFS
331
E6
102
}
  0
BLOCK_RECORD
  5
E7
330
1
100
AcDbSymbolTableRecord
100
AcDbBlockTableRecord
  2
SW_BLOCK_DIMENSION_11
340
0
102
{BLKREFS
331
EE
102
}
  0
BLOCK_RECORD
  5
EF
330
1
100
AcDbSymbolTableRecord
100
AcDbBlockTableRecord
  2
SW_BLOCK_DIMENSION_12
340
0
102
{BLKREFS
331
F6
102
}
  0
BLOCK_RECORD
  5
F7
330
1
100
AcDbSymbolTableRecord
100
AcDbBlockTableRecord
  2
SW_BLOCK_DIMENSION_13
340
0
102
{BLKREFS
331
FE
102
}
  0
BLOCK_RECORD
  5
FF
330
1
100
AcDbSymbolTableRecord
100
AcDbBlockTableRecord
  2
SW_BLOCK_DIMENSION_14
340
0
102
{BLKREFS
331
10E
102
}
  0
BLOCK_RECORD
  5
10F
330
1
100
AcDbSymbolTableRecord
100
AcDbBlockTableRecord
  2
SW_BLOCK_DIMENSION_15
340
0
102
{BLKREFS
331
11F
102
}
  0
BLOCK_RECORD
  5
120
330
1
100
AcDbSymbolTableRecord
100
AcDbBlockTableRecord
  2
SW_BLOCK_DIMENSION_16
340
0
102
{BLKREFS
331
130
102
}
  0
BLOCK_RECORD
  5
131
330
1
100
AcDbSymbolTableRecord
100
AcDbBlockTableRecord
  2
SW_BLOCK_DIMENSION_17
340
0
102
{BLKREFS
331
141
102
}
  0
BLOCK_RECORD
  5
142
330
1
100
AcDbSymbolTableRecord
100
AcDbBlockTableRecord
  2
SW_BLOCK_DIMENSION_18
340
0
102
{BLKREFS
331
152
102
}
  0
BLOCK_RECORD
  5
153
330
1
100
AcDbSymbolTableRecord
100
AcDbBlockTableRecord
  2
SW_BLOCK_DIMENSION_19
340
0
102
{BLKREFS
331
163
102
}
  0
BLOCK_RECORD
  5
164
330
1
100
AcDbSymbolTableRecord
100
AcDbBlockTableRecord
  2
SW_NOTE_0
340
0
102
{BLKREFS
331
169
102
}
  0
BLOCK_RECORD
  5
16F
330
1
100
AcDbSymbolTableRecord
100
AcDbBlockTableRecord
  2
SW_NOTE_1
340
0
102
{BLKREFS
331
176
102
}
  0
ENDTAB
  0
ENDSEC
  0
SECTION
  2
BLOCKS
  0
BLOCK
  5
20
330
1F
100
AcDbEntity
  8
0
100
AcDbBlockBegin
  2
*Model_Space
 70
     0
 10
0.0
 20
0.0
 30
0.0
  3
*Model_Space
  1

  0
ENDBLK
  5
21
330
1F
100
AcDbEntity
  8
0
100
AcDbBlockEnd
  0
BLOCK
  5
1C
330
1B
100
AcDbEntity
 67
     1
  8
0
100
AcDbBlockBegin
  2
*Paper_Space
 70
     0
 10
0.0
 20
0.0
 30
0.0
  3
*Paper_Space
  1

  0
ENDBLK
  5
1D
330
1B
100
AcDbEntity
 67
     1
  8
0
100
AcDbBlockEnd
  0
BLOCK
  5
24
330
23
100
AcDbEntity
  8
0
100
AcDbBlockBegin
  2
*Paper_Space0
 70
     0
 10
0.0
 20
0.0
 30
0.0
  3
*Paper_Space0
  1

  0
ENDBLK
  5
25
330
23
100
AcDbEntity
  8
0
100
AcDbBlockEnd
  0
BLOCK
  5
74
330
73
100
AcDbEntity
  8
0
100
AcDbBlockBegin
  2
Block1
 70
     0
 10
0.0
 20
0.0
 30
0.0
  3
Block1
  1

  0
LINE
  5
76
330
73
100
AcDbEntity
  8
0
100
AcDbLine
 10
363.6834285714
 20
41.3579706949
 30
0.0
 11
388.6834285714
 21
41.3579706949
 31
0.0
  0
LINE
  5
77
330
73
100
AcDbEntity
  8
0
100
AcDbLine
 10
374.9034285714
 20
41.3579706949
 30
0.0
 11
374.9034285714
 21
171.3579706949
 31
0.0
  0
LINE
  5
78
330
73
100
AcDbEntity
  8
0
100
AcDbLine
 10
374.9034285714
 20
51.3579706949
 30
0.0
 11
384.9034285714
 21
51.3579706949
 31
0.0
  0
LINE
  5
79
330
73
100
AcDbEntity
  8
0
100
AcDbLine
 10
374.9034285714
 20
61.3579706949
 30
0.0
 11
384.9034285714
 21
61.3579706949
 31
0.0
  0
LINE
  5
7A
330
73
100
AcDbEntity
  8
0
100
AcDbLine
 10
374.9034285714
 20
71.3579706949
 30
0.0
 11
384.9034285714
 21
71.3579706949
 31
0.0
  0
LINE
  5
7B
330
73
100
AcDbEntity
  8
0
100
AcDbLine
 10
374.9034285714
 20
81.3579706949
 30
0.0
 11
384.9034285714
 21
81.3579706949
 31
0.0
  0
LINE
  5
7C
330
73
100
AcDbEntity
  8
0
100
AcDbLine
 10
374.9034285714
 20
91.3579706949
 30
0.0
 11
384.9034285714
 21
91.3579706949
 31
0.0
  0
LINE
  5
7D
330
73
100
AcDbEntity
  8
0
100
AcDbLine
 10
374.9034285714
 20
101.3579706949
 30
0.0
 11
384.9034285714
 21
101.3579706949
 31
0.0
  0
LINE
  5
7E
330
73
100
AcDbEntity
  8
0
100
AcDbLine
 10
374.9034285714
 20
111.3579706949
 30
0.0
 11
384.9034285714
 21
111.3579706949
 31
0.0
  0
LINE
  5
7F
330
73
100
AcDbEntity
  8
0
100
AcDbLine
 10
374.9034285714
 20
121.3579706949
 30
0.0
 11
384.9034285714
 21
121.3579706949
 31
0.0
  0
LINE
  5
80
330
73
100
AcDbEntity
  8
0
100
AcDbLine
 10
374.9034285714
 20
131.3579706949
 30
0.0
 11
384.9034285714
 21
131.3579706949
 31
0.0
  0
LINE
  5
81
330
73
100
AcDbEntity
  8
0
100
AcDbLine
 10
374.9034285714
 20
141.3579706949
 30
0.0
 11
384.9034285714
 21
141.3579706949
 31
0.0
  0
LINE
  5
82
330
73
100
AcDbEntity
  8
0
100
AcDbLine
 10
374.9034285714
 20
151.3579706949
 30
0.0
 11
384.9034285714
 21
151.3579706949
 31
0.0
  0
LINE
  5
83
330
73
100
AcDbEntity
  8
0
100
AcDbLine
 10
374.9034285714
 20
161.3579706949
 30
0.0
 11
384.9034285714
 21
161.3579706949
 31
0.0
  0
LINE
  5
84
330
73
100
AcDbEntity
  8
0
100
AcDbLine
 10
374.9034285714
 20
171.3579706949
 30
0.0
 11
384.9034285714
 21
171.3579706949
 31
0.0
  0
LINE
  5
85
330
73
100
AcDbEntity
  8
0
100
AcDbLine
 10
374.9034285714
 20
66.7579706949
 30
0.0
 11
362.9034285714
 21
66.7579706949
 31
0.0
  0
LINE
  5
86
330
73
100
AcDbEntity
  8
0
100
AcDbLine
 10
374.9034285714
 20
92.1579706949
 30
0.0
 11
362.9034285714
 21
92.1579706949
 31
0.0
  0
LINE
  5
87
330
73
100
AcDbEntity
  8
0
100
AcDbLine
 10
374.9034285714
 20
117.5579706949
 30
0.0
 11
362.9034285714
 21
117.5579706949
 31
0.0
  0
LINE
  5
88
330
73
100
AcDbEntity
  8
0
100
AcDbLine
 10
374.9034285714
 20
142.9579706949
 30
0.0
 11
362.9034285714
 21
142.9579706949
 31
0.0
  0
LINE
  5
89
330
73
100
AcDbEntity
  8
0
100
AcDbLine
 10
374.9034285714
 20
168.3579706949
 30
0.0
 11
362.9034285714
 21
168.3579706949
 31
0.0
  0
INSERT
  5
96
330
73
100
AcDbEntity
  8
0
  6
Continuous
 62
   179
370
     0
100
AcDbBlockReference
  2
SW_BLOCK_DIMENSION_0
 10
397.2096946378
 20
38.9914197296
 30
0.0
  0
INSERT
  5
9E
330
73
100
AcDbEntity
  8
0
  6
Continuous
 62
   179
370
     0
100
AcDbBlockReference
  2
SW_BLOCK_DIMENSION_1
 10
397.2096946378
 20
48.9914197296
 30
0.0
  0
INSERT
  5
A6
330
73
100
AcDbEntity
  8
0
  6
Continuous
 62
   179
370
     0
100
AcDbBlockReference
  2
SW_BLOCK_DIMENSION_2
 10
397.2096946378
 20
58.9914197296
 30
0.0
  0
INSERT
  5
AE
330
73
100
AcDbEntity
  8
0
  6
Continuous
 62
   179
370
     0
100
AcDbBlockReference
  2
SW_BLOCK_DIMENSION_3
 10
397.2096946378
 20
68.9914197296
 30
0.0
  0
INSERT
  5
B6
330
73
100
AcDbEntity
  8
0
  6
Continuous
 62
   179
370
     0
100
AcDbBlockReference
  2
SW_BLOCK_DIMENSION_4
 10
397.2096946378
 20
78.9914197296
 30
0.0
  0
INSERT
  5
BE
330
73
100
AcDbEntity
  8
0
  6
Continuous
 62
   179
370
     0
100
AcDbBlockReference
  2
SW_BLOCK_DIMENSION_5
 10
397.2096946378
 20
88.9914197296
 30
0.0
  0
INSERT
  5
C6
330
73
100
AcDbEntity
  8
0
  6
Continuous
 62
   179
370
     0
100
AcDbBlockReference
  2
SW_BLOCK_DIMENSION_6
 10
397.2096946378
 20
98.9914197296
 30
0.0
  0
INSERT
  5
CE
330
73
100
AcDbEntity
  8
0
  6
Continuous
 62
   179
370
     0
100
AcDbBlockReference
  2
SW_BLOCK_DIMENSION_7
 10
397.2096946378
 20
108.9914197296
 30
0.0
  0
INSERT
  5
D6
330
73
100
AcDbEntity
  8
0
  6
Continuous
 62
   179
370
     0
100
AcDbBlockReference
  2
SW_BLOCK_DIMENSION_8
 10
397.2096946378
 20
118.9914197296
 30
0.0
  0
INSERT
  5
DE
330
73
100
AcDbEntity
  8
0
  6
Continuous
 62
   179
370
     0
100
AcDbBlockReference
  2
SW_BLOCK_DIMENSION_9
 10
397.2096946378
 20
128.9914197296
 30
0.0
  0
INSERT
  5
E6
330
73
100
AcDbEntity
  8
0
  6
Continuous
 62
   179
370
     0
100
AcDbBlockReference
  2
SW_BLOCK_DIMENSION_10
 10
397.2096946378
 20
138.9914197296
 30
0.0
  0
INSERT
  5
EE
330
73
100
AcDbEntity
  8
0
  6
Continuous
 62
   179
370
     0
100
AcDbBlockReference
  2
SW_BLOCK_DIMENSION_11
 10
397.2096946378
 20
148.9914197296
 30
0.0
  0
INSERT
  5
F6
330
73
100
AcDbEntity
  8
0
  6
Continuous
 62
   179
370
     0
100
AcDbBlockReference
  2
SW_BLOCK_DIMENSION_12
 10
397.2096946378
 20
158.9914197296
 30
0.0
  0
INSERT
  5
FE
330
73
100
AcDbEntity
  8
0
  6
Continuous
 62
   179
370
     0
100
AcDbBlockReference
  2
SW_BLOCK_DIMENSION_13
 10
397.2096946378
 20
168.9914197296
 30
0.0
  0
INSERT
  5
10E
330
73
100
AcDbEntity
  8
0
  6
Continuous
 62
   179
370
     0
100
AcDbBlockReference
  2
SW_BLOCK_DIMENSION_14
 10
341.1734707322
 20
36.1691980072
 30
0.0
  0
INSERT
  5
11F
330
73
100
AcDbEntity
  8
0
  6
Continuous
 62
   179
370
     0
100
AcDbBlockReference
  2
SW_BLOCK_DIMENSION_15
 10
339.1802765097
 20
61.5691980072
 30
0.0
  0
INSERT
  5
130
330
73
100
AcDbEntity
  8
0
  6
Continuous
 62
   179
370
     0
100
AcDbBlockReference
  2
SW_BLOCK_DIMENSION_16
 10
339.1802765097
 20
86.9691980072
 30
0.0
  0
INSERT
  5
141
330
73
100
AcDbEntity
  8
0
  6
Continuous
 62
   179
370
     0
100
AcDbBlockReference
  2
SW_BLOCK_DIMENSION_17
 10
339.1802765097
 20
112.3691980072
 30
0.0
  0
INSERT
  5
152
330
73
100
AcDbEntity
  8
0
  6
Continuous
 62
   179
370
     0
100
AcDbBlockReference
  2
SW_BLOCK_DIMENSION_18
 10
336.8284243759
 20
137.7691980072
 30
0.0
  0
INSERT
  5
163
330
73
100
AcDbEntity
  8
0
  6
Continuous
 62
   179
370
     0
100
AcDbBlockReference
  2
SW_BLOCK_DIMENSION_19
 10
341.1734707322
 20
163.1691980072
 30
0.0
  0
INSERT
  5
169
330
73
100
AcDbEntity
  8
0
  6
Continuous
 62
   179
370
     0
100
AcDbBlockReference
  2
SW_NOTE_0
 10
337.5586028241
 20
28.8175207347
 30
0.0
  0
MTEXT
  5
16A
330
73
100
AcDbEntity
  8
0
  6
Continuous
 62
   179
370
     0
100
AcDbMText
 10
393.160738319
 20
33.5924424874
 30
0.0
 40
3.7041666667
 41
0.0
 71
     1
 72
     1
  1
mm
  7
SLDTEXTSTYLE0
 73
     1
 44
1.0
  0
ENDBLK
  5
75
330
73
100
AcDbEntity
  8
0
100
AcDbBlockEnd
  0
BLOCK
  5
8B
330
8A
100
AcDbEntity
  8
0
100
AcDbBlockBegin
  2
SW_BLOCK_DIMENSION_0
 70
     0
 10
0.0
 20
0.0
 30
0.0
  3
SW_BLOCK_DIMENSION_0
  1

  0
INSERT
  5
92
330
8A
100
AcDbEntity
  8
0
  6
Continuous
 62
     0
370
     0
100
AcDbBlockReference
  2
_ORIGIN
 10
-1.5805038061
 20
2.3665509652
 30
0.0
 41
0.9483022837
 42
0.9483022837
 50
0.0
  0
LINE
  5
93
330
8A
100
AcDbEntity
  8
0
  6
Continuous
 62
     0
370
     0
100
AcDbLine
 10
-6.5262660664
 20
2.3665509652
 30
0.0
 11
0.0
 21
2.3665509652
 31
0.0
  0
MTEXT
  5
95
330
8A
100
AcDbEntity
  8
0
  6
Continuous
 62
     0
370
     0
100
AcDbMText
 10
0.0
 20
4.0927900738
 30
0.0
 40
3.175
 41
0.0
 71
     1
 72
     1
  1
0
  7
SLDTEXTSTYLE0
 73
     1
 44
1.0
  0
ENDBLK
  5
8C
330
8A
100
AcDbEntity
  8
0
100
AcDbBlockEnd
  0
BLOCK
  5
8E
330
8D
100
AcDbEntity
  8
0
100
AcDbBlockBegin
  2
_ORIGIN
 70
     0
 10
0.0
 20
0.0
 30
0.0
  3
_ORIGIN
  1

  0
CIRCLE
  5
90
330
8D
100
AcDbEntity
  8
0
  6
ByBlock
 62
     0
370
    -2
100
AcDbCircle
 10
0.0
 20
0.0
 30
0.0
 40
0.5
  0
LINE
  5
91
330
8D
100
AcDbEntity
  8
0
  6
ByBlock
 62
     0
370
    -2
100
AcDbLine
 10
0.0
 20
0.0
 30
0.0
 11
-1.0
 21
0.0
 31
0.0
  0
ENDBLK
  5
8F
330
8D
100
AcDbEntity
  8
0
100
AcDbBlockEnd
  0
BLOCK
  5
98
330
97
100
AcDbEntity
  8
0
100
AcDbBlockBegin
  2
SW_BLOCK_DIMENSION_1
 70
     0
 10
0.0
 20
0.0
 30
0.0
  3
SW_BLOCK_DIMENSION_1
  1

  0
SOLID
  5
9A
330
97
100
AcDbEntity
  8
0
  6
Continuous
 62
     0
370
     0
100
AcDbTrace
 10
-1.5805038061
 20
2.3665509652
 30
0.0
 11
-2.0546549479
 21
-0.7154314566
 31
0.0
 12
-1.1063526643
 22
-0.7154314566
 32
0.0
 13
-1.1063526643
 23
-0.7154314566
 33
0.0
  0
LINE
  5
9B
330
97
100
AcDbEntity
  8
0
  6
Continuous
 62
     0
370
     0
100
AcDbLine
 10
-10.3062660664
 20
2.3665509652
 30
0.0
 11
0.0
 21
2.3665509652
 31
0.0
  0
LINE
  5
9C
330
97
100
AcDbEntity
  8
0
  6
Continuous
 62
     0
370
     0
100
AcDbLine
 10
-1.5805038061
 20
-7.6334490348
 30
0.0
 11
-1.5805038061
 21
2.3665509652
 31
0.0
  0
MTEXT
  5
9D
330
97
100
AcDbEntity
  8
0
  6
Continuous
 62
     0
370
     0
100
AcDbMText
 10
0.0
 20
4.0927900738
 30
0.0
 40
3.175
 41
0.0
 71
     1
 72
     1
  1
10
  7
SLDTEXTSTYLE0
 73
     1
 44
1.0
  0
ENDBLK
  5
99
330
97
100
AcDbEntity
  8
0
100
AcDbBlockEnd
  0
BLOCK
  5
A0
330
9F
100
AcDbEntity
  8
0
100
AcDbBlockBegin
  2
SW_BLOCK_DIMENSION_2
 70
     0
 10
0.0
 20
0.0
 30
0.0
  3
SW_BLOCK_DIMENSION_2
  1

  0
SOLID
  5
A2
330
9F
100
AcDbEntity
  8
0
  6
Continuous
 62
     0
370
     0
100
AcDbTrace
 10
-1.5805038061
 20
2.3665509652
 30
0.0
 11
-2.0546549479
 21
-0.7154314566
 31
0.0
 12
-1.1063526643
 22
-0.7154314566
 32
0.0
 13
-1.1063526643
 23
-0.7154314566
 33
0.0
  0
LINE
  5
A3
330
9F
100
AcDbEntity
  8
0
  6
Continuous
 62
     0
370
     0
100
AcDbLine
 10
-10.3062660664
 20
2.3665509652
 30
0.0
 11
0.0
 21
2.3665509652
 31
0.0
  0
LINE
  5
A4
330
9F
100
AcDbEntity
  8
0
  6
Continuous
 62
     0
370
     0
100
AcDbLine
 10
-1.5805038061
 20
-7.6334490348
 30
0.0
 11
-1.5805038061
 21
2.3665509652
 31
0.0
  0
MTEXT
  5
A5
330
9F
100
AcDbEntity
  8
0
  6
Continuous
 62
     0
370
     0
100
AcDbMText
 10
0.0
 20
4.0927900738
 30
0.0
 40
3.175
 41
0.0
 71
     1
 72
     1
  1
20
  7
SLDTEXTSTYLE0
 73
     1
 44
1.0
  0
ENDBLK
  5
A1
330
9F
100
AcDbEntity
  8
0
100
AcDbBlockEnd
  0
BLOCK
  5
A8
330
A7
100
AcDbEntity
  8
0
100
AcDbBlockBegin
  2
SW_BLOCK_DIMENSION_3
 70
     0
 10
0.0
 20
0.0
 30
0.0
  3
SW_BLOCK_DIMENSION_3
  1

  0
SOLID
  5
AA
330
A7
100
AcDbEntity
  8
0
  6
Continuous
 62
     0
370
     0
100
AcDbTrace
 10
-1.5805038061
 20
2.3665509652
 30
0.0
 11
-2.0546549479
 21
-0.7154314566
 31
0.0
 12
-1.1063526643
 22
-0.7154314566
 32
0.0
 13
-1.1063526643
 23
-0.7154314566
 33
0.0
  0
LINE
  5
AB
330
A7
100
AcDbEntity
  8
0
  6
Continuous
 62
     0
370
     0
100
AcDbLine
 10
-10.3062660664
 20
2.3665509652
 30
0.0
 11
0.0
 21
2.3665509652
 31
0.0
  0
LINE
  5
AC
330
A7
100
AcDbEntity
  8
0
  6
Continuous
 62
     0
370
     0
100
AcDbLine
 10
-1.5805038061
 20
-7.6334490348
 30
0.0
 11
-1.5805038061
 21
2.3665509652
 31
0.0
  0
MTEXT
  5
AD
330
A7
100
AcDbEntity
  8
0
  6
Continuous
 62
     0
370
     0
100
AcDbMText
 10
0.0
 20
4.0927900738
 30
0.0
 40
3.175
 41
0.0
 71
     1
 72
     1
  1
30
  7
SLDTEXTSTYLE0
 73
     1
 44
1.0
  0
ENDBLK
  5
A9
330
A7
100
AcDbEntity
  8
0
100
AcDbBlockEnd
  0
BLOCK
  5
B0
330
AF
100
AcDbEntity
  8
0
100
AcDbBlockBegin
  2
SW_BLOCK_DIMENSION_4
 70
     0
 10
0.0
 20
0.0
 30
0.0
  3
SW_BLOCK_DIMENSION_4
  1

  0
SOLID
  5
B2
330
AF
100
AcDbEntity
  8
0
  6
Continuous
 62
     0
370
     0
100
AcDbTrace
 10
-1.5805038061
 20
2.3665509652
 30
0.0
 11
-2.0546549479
 21
-0.7154314566
 31
0.0
 12
-1.1063526643
 22
-0.7154314566
 32
0.0
 13
-1.1063526643
 23
-0.7154314566
 33
0.0
  0
LINE
  5
B3
330
AF
100
AcDbEntity
  8
0
  6
Continuous
 62
     0
370
     0
100
AcDbLine
 10
-10.3062660664
 20
2.3665509652
 30
0.0
 11
0.0
 21
2.3665509652
 31
0.0
  0
LINE
  5
B4
330
AF
100
AcDbEntity
  8
0
  6
Continuous
 62
     0
370
     0
100
AcDbLine
 10
-1.5805038061
 20
-7.6334490348
 30
0.0
 11
-1.5805038061
 21
2.3665509652
 31
0.0
  0
MTEXT
  5
B5
330
AF
100
AcDbEntity
  8
0
  6
Continuous
 62
     0
370
     0
100
AcDbMText
 10
0.0
 20
4.0927900738
 30
0.0
 40
3.175
 41
0.0
 71
     1
 72
     1
  1
40
  7
SLDTEXTSTYLE0
 73
     1
 44
1.0
  0
ENDBLK
  5
B1
330
AF
100
AcDbEntity
  8
0
100
AcDbBlockEnd
  0
BLOCK
  5
B8
330
B7
100
AcDbEntity
  8
0
100
AcDbBlockBegin
  2
SW_BLOCK_DIMENSION_5
 70
     0
 10
0.0
 20
0.0
 30
0.0
  3
SW_BLOCK_DIMENSION_5
  1

  0
SOLID
  5
BA
330
B7
100
AcDbEntity
  8
0
  6
Continuous
 62
     0
370
     0
100
AcDbTrace
 10
-1.5805038061
 20
2.3665509652
 30
0.0
 11
-2.0546549479
 21
-0.7154314566
 31
0.0
 12
-1.1063526643
 22
-0.7154314566
 32
0.0
 13
-1.1063526643
 23
-0.7154314566
 33
0.0
  0
LINE
  5
BB
330
B7
100
AcDbEntity
  8
0
  6
Continuous
 62
     0
370
     0
100
AcDbLine
 10
-10.3062660664
 20
2.3665509652
 30
0.0
 11
0.0
 21
2.3665509652
 31
0.0
  0
LINE
  5
BC
330
B7
100
AcDbEntity
  8
0
  6
Continuous
 62
     0
370
     0
100
AcDbLine
 10
-1.5805038061
 20
-7.6334490348
 30
0.0
 11
-1.5805038061
 21
2.3665509652
 31
0.0
  0
MTEXT
  5
BD
330
B7
100
AcDbEntity
  8
0
  6
Continuous
 62
     0
370
     0
100
AcDbMText
 10
0.0
 20
4.0927900738
 30
0.0
 40
3.175
 41
0.0
 71
     1
 72
     1
  1
50
  7
SLDTEXTSTYLE0
 73
     1
 44
1.0
  0
ENDBLK
  5
B9
330
B7
100
AcDbEntity
  8
0
100
AcDbBlockEnd
  0
BLOCK
  5
C0
330
BF
100
AcDbEntity
  8
0
100
AcDbBlockBegin
  2
SW_BLOCK_DIMENSION_6
 70
     0
 10
0.0
 20
0.0
 30
0.0
  3
SW_BLOCK_DIMENSION_6
  1

  0
SOLID
  5
C2
330
BF
100
AcDbEntity
  8
0
  6
Continuous
 62
     0
370
     0
100
AcDbTrace
 10
-1.5805038061
 20
2.3665509652
 30
0.0
 11
-2.0546549479
 21
-0.7154314566
 31
0.0
 12
-1.1063526643
 22
-0.7154314566
 32
0.0
 13
-1.1063526643
 23
-0.7154314566
 33
0.0
  0
LINE
  5
C3
330
BF
100
AcDbEntity
  8
0
  6
Continuous
 62
     0
370
     0
100
AcDbLine
 10
-10.3062660664
 20
2.3665509652
 30
0.0
 11
0.0
 21
2.3665509652
 31
0.0
  0
LINE
  5
C4
330
BF
100
AcDbEntity
  8
0
  6
Continuous
 62
     0
370
     0
100
AcDbLine
 10
-1.5805038061
 20
-7.6334490348
 30
0.0
 11
-1.5805038061
 21
2.3665509652
 31
0.0
  0
MTEXT
  5
C5
330
BF
100
AcDbEntity
  8
0
  6
Continuous
 62
     0
370
     0
100
AcDbMText
 10
0.0
 20
4.0927900738
 30
0.0
 40
3.175
 41
0.0
 71
     1
 72
     1
  1
60
  7
SLDTEXTSTYLE0
 73
     1
 44
1.0
  0
ENDBLK
  5
C1
330
BF
100
AcDbEntity
  8
0
100
AcDbBlockEnd
  0
BLOCK
  5
C8
330
C7
100
AcDbEntity
  8
0
100
AcDbBlockBegin
  2
SW_BLOCK_DIMENSION_7
 70
     0
 10
0.0
 20
0.0
 30
0.0
  3
SW_BLOCK_DIMENSION_7
  1

  0
SOLID
  5
CA
330
C7
100
AcDbEntity
  8
0
  6
Continuous
 62
     0
370
     0
100
AcDbTrace
 10
-1.5805038061
 20
2.3665509652
 30
0.0
 11
-2.0546549479
 21
-0.7154314566
 31
0.0
 12
-1.1063526643
 22
-0.7154314566
 32
0.0
 13
-1.1063526643
 23
-0.7154314566
 33
0.0
  0
LINE
  5
CB
330
C7
100
AcDbEntity
  8
0
  6
Continuous
 62
     0
370
     0
100
AcDbLine
 10
-10.3062660664
 20
2.3665509652
 30
0.0
 11
0.0
 21
2.3665509652
 31
0.0
  0
LINE
  5
CC
330
C7
100
AcDbEntity
  8
0
  6
Continuous
 62
     0
370
     0
100
AcDbLine
 10
-1.5805038061
 20
-7.6334490348
 30
0.0
 11
-1.5805038061
 21
2.3665509652
 31
0.0
  0
MTEXT
  5
CD
330
C7
100
AcDbEntity
  8
0
  6
Continuous
 62
     0
370
     0
100
AcDbMText
 10
0.0
 20
4.0927900738
 30
0.0
 40
3.175
 41
0.0
 71
     1
 72
     1
  1
70
  7
SLDTEXTSTYLE0
 73
     1
 44
1.0
  0
ENDBLK
  5
C9
330
C7
100
AcDbEntity
  8
0
100
AcDbBlockEnd
  0
BLOCK
  5
D0
330
CF
100
AcDbEntity
  8
0
100
AcDbBlockBegin
  2
SW_BLOCK_DIMENSION_8
 70
     0
 10
0.0
 20
0.0
 30
0.0
  3
SW_BLOCK_DIMENSION_8
  1

  0
SOLID
  5
D2
330
CF
100
AcDbEntity
  8
0
  6
Continuous
 62
     0
370
     0
100
AcDbTrace
 10
-1.5805038061
 20
2.3665509652
 30
0.0
 11
-2.0546549479
 21
-0.7154314566
 31
0.0
 12
-1.1063526643
 22
-0.7154314566
 32
0.0
 13
-1.1063526643
 23
-0.7154314566
 33
0.0
  0
LINE
  5
D3
330
CF
100
AcDbEntity
  8
0
  6
Continuous
 62
     0
370
     0
100
AcDbLine
 10
-10.3062660664
 20
2.3665509652
 30
0.0
 11
0.0
 21
2.3665509652
 31
0.0
  0
LINE
  5
D4
330
CF
100
AcDbEntity
  8
0
  6
Continuous
 62
     0
370
     0
100
AcDbLine
 10
-1.5805038061
 20
-7.6334490348
 30
0.0
 11
-1.5805038061
 21
2.3665509652
 31
0.0
  0
MTEXT
  5
D5
330
CF
100
AcDbEntity
  8
0
  6
Continuous
 62
     0
370
     0
100
AcDbMText
 10
0.0
 20
4.0927900738
 30
0.0
 40
3.175
 41
0.0
 71
     1
 72
     1
  1
80
  7
SLDTEXTSTYLE0
 73
     1
 44
1.0
  0
ENDBLK
  5
D1
330
CF
100
AcDbEntity
  8
0
100
AcDbBlockEnd
  0
BLOCK
  5
D8
330
D7
100
AcDbEntity
  8
0
100
AcDbBlockBegin
  2
SW_BLOCK_DIMENSION_9
 70
     0
 10
0.0
 20
0.0
 30
0.0
  3
SW_BLOCK_DIMENSION_9
  1

  0
SOLID
  5
DA
330
D7
100
AcDbEntity
  8
0
  6
Continuous
 62
     0
370
     0
100
AcDbTrace
 10
-1.5805038061
 20
2.3665509652
 30
0.0
 11
-2.0546549479
 21
-0.7154314566
 31
0.0
 12
-1.1063526643
 22
-0.7154314566
 32
0.0
 13
-1.1063526643
 23
-0.7154314566
 33
0.0
  0
LINE
  5
DB
330
D7
100
AcDbEntity
  8
0
  6
Continuous
 62
     0
370
     0
100
AcDbLine
 10
-10.3062660664
 20
2.3665509652
 30
0.0
 11
0.0
 21
2.3665509652
 31
0.0
  0
LINE
  5
DC
330
D7
100
AcDbEntity
  8
0
  6
Continuous
 62
     0
370
     0
100
AcDbLine
 10
-1.5805038061
 20
-7.6334490348
 30
0.0
 11
-1.5805038061
 21
2.3665509652
 31
0.0
  0
MTEXT
  5
DD
330
D7
100
AcDbEntity
  8
0
  6
Continuous
 62
     0
370
     0
100
AcDbMText
 10
0.0
 20
4.0927900738
 30
0.0
 40
3.175
 41
0.0
 71
     1
 72
     1
  1
90
  7
SLDTEXTSTYLE0
 73
     1
 44
1.0
  0
ENDBLK
  5
D9
330
D7
100
AcDbEntity
  8
0
100
AcDbBlockEnd
  0
BLOCK
  5
E0
330
DF
100
AcDbEntity
  8
0
100
AcDbBlockBegin
  2
SW_BLOCK_DIMENSION_10
 70
     0
 10
0.0
 20
0.0
 30
0.0
  3
SW_BLOCK_DIMENSION_10
  1

  0
SOLID
  5
E2
330
DF
100
AcDbEntity
  8
0
  6
Continuous
 62
     0
370
     0
100
AcDbTrace
 10
-1.5805038061
 20
2.3665509652
 30
0.0
 11
-2.0546549479
 21
-0.7154314566
 31
0.0
 12
-1.1063526643
 22
-0.7154314566
 32
0.0
 13
-1.1063526643
 23
-0.7154314566
 33
0.0
  0
LINE
  5
E3
330
DF
100
AcDbEntity
  8
0
  6
Continuous
 62
     0
370
     0
100
AcDbLine
 10
-10.3062660664
 20
2.3665509652
 30
0.0
 11
0.0
 21
2.3665509652
 31
0.0
  0
LINE
  5
E4
330
DF
100
AcDbEntity
  8
0
  6
Continuous
 62
     0
370
     0
100
AcDbLine
 10
-1.5805038061
 20
-7.6334490348
 30
0.0
 11
-1.5805038061
 21
2.3665509652
 31
0.0
  0
MTEXT
  5
E5
330
DF
100
AcDbEntity
  8
0
  6
Continuous
 62
     0
370
     0
100
AcDbMText
 10
0.0
 20
4.0927900738
 30
0.0
 40
3.175
 41
0.0
 71
     1
 72
     1
  1
100
  7
SLDTEXTSTYLE0
 73
     1
 44
1.0
  0
ENDBLK
  5
E1
330
DF
100
AcDbEntity
  8
0
100
AcDbBlockEnd
  0
BLOCK
  5
E8
330
E7
100
AcDbEntity
  8
0
100
AcDbBlockBegin
  2
SW_BLOCK_DIMENSION_11
 70
     0
 10
0.0
 20
0.0
 30
0.0
  3
SW_BLOCK_DIMENSION_11
  1

  0
SOLID
  5
EA
330
E7
100
AcDbEntity
  8
0
  6
Continuous
 62
     0
370
     0
100
AcDbTrace
 10
-1.5805038061
 20
2.3665509652
 30
0.0
 11
-2.0546549479
 21
-0.7154314566
 31
0.0
 12
-1.1063526643
 22
-0.7154314566
 32
0.0
 13
-1.1063526643
 23
-0.7154314566
 33
0.0
  0
LINE
  5
EB
330
E7
100
AcDbEntity
  8
0
  6
Continuous
 62
     0
370
     0
100
AcDbLine
 10
-10.3062660664
 20
2.3665509652
 30
0.0
 11
0.0
 21
2.3665509652
 31
0.0
  0
LINE
  5
EC
330
E7
100
AcDbEntity
  8
0
  6
Continuous
 62
     0
370
     0
100
AcDbLine
 10
-1.5805038061
 20
-7.6334490348
 30
0.0
 11
-1.5805038061
 21
2.3665509652
 31
0.0
  0
MTEXT
  5
ED
330
E7
100
AcDbEntity
  8
0
  6
Continuous
 62
     0
370
     0
100
AcDbMText
 10
0.0
 20
4.0927900738
 30
0.0
 40
3.175
 41
0.0
 71
     1
 72
     1
  1
110
  7
SLDTEXTSTYLE0
 73
     1
 44
1.0
  0
ENDBLK
  5
E9
330
E7
100
AcDbEntity
  8
0
100
AcDbBlockEnd
  0
BLOCK
  5
F0
330
EF
100
AcDbEntity
  8
0
100
AcDbBlockBegin
  2
SW_BLOCK_DIMENSION_12
 70
     0
 10
0.0
 20
0.0
 30
0.0
  3
SW_BLOCK_DIMENSION_12
  1

  0
SOLID
  5
F2
330
EF
100
AcDbEntity
  8
0
  6
Continuous
 62
     0
370
     0
100
AcDbTrace
 10
-1.5805038061
 20
2.3665509652
 30
0.0
 11
-2.0546549479
 21
-0.7154314566
 31
0.0
 12
-1.1063526643
 22
-0.7154314566
 32
0.0
 13
-1.1063526643
 23
-0.7154314566
 33
0.0
  0
LINE
  5
F3
330
EF
100
AcDbEntity
  8
0
  6
Continuous
 62
     0
370
     0
100
AcDbLine
 10
-10.3062660664
 20
2.3665509652
 30
0.0
 11
0.0
 21
2.3665509652
 31
0.0
  0
LINE
  5
F4
330
EF
100
AcDbEntity
  8
0
  6
Continuous
 62
     0
370
     0
100
AcDbLine
 10
-1.5805038061
 20
-7.6334490348
 30
0.0
 11
-1.5805038061
 21
2.3665509652
 31
0.0
  0
MTEXT
  5
F5
330
EF
100
AcDbEntity
  8
0
  6
Continuous
 62
     0
370
     0
100
AcDbMText
 10
0.0
 20
4.0927900738
 30
0.0
 40
3.175
 41
0.0
 71
     1
 72
     1
  1
120
  7
SLDTEXTSTYLE0
 73
     1
 44
1.0
  0
ENDBLK
  5
F1
330
EF
100
AcDbEntity
  8
0
100
AcDbBlockEnd
  0
BLOCK
  5
F8
330
F7
100
AcDbEntity
  8
0
100
AcDbBlockBegin
  2
SW_BLOCK_DIMENSION_13
 70
     0
 10
0.0
 20
0.0
 30
0.0
  3
SW_BLOCK_DIMENSION_13
  1

  0
SOLID
  5
FA
330
F7
100
AcDbEntity
  8
0
  6
Continuous
 62
     0
370
     0
100
AcDbTrace
 10
-1.5805038061
 20
2.3665509652
 30
0.0
 11
-2.0546549479
 21
-0.7154314566
 31
0.0
 12
-1.1063526643
 22
-0.7154314566
 32
0.0
 13
-1.1063526643
 23
-0.7154314566
 33
0.0
  0
LINE
  5
FB
330
F7
100
AcDbEntity
  8
0
  6
Continuous
 62
     0
370
     0
100
AcDbLine
 10
-10.3062660664
 20
2.3665509652
 30
0.0
 11
0.0
 21
2.3665509652
 31
0.0
  0
LINE
  5
FC
330
F7
100
AcDbEntity
  8
0
  6
Continuous
 62
     0
370
     0
100
AcDbLine
 10
-1.5805038061
 20
-7.6334490348
 30
0.0
 11
-1.5805038061
 21
2.3665509652
 31
0.0
  0
MTEXT
  5
FD
330
F7
100
AcDbEntity
  8
0
  6
Continuous
 62
     0
370
     0
100
AcDbMText
 10
0.0
 20
4.0927900738
 30
0.0
 40
3.175
 41
0.0
 71
     1
 72
     1
  1
130
  7
SLDTEXTSTYLE0
 73
     1
 44
1.0
  0
ENDBLK
  5
F9
330
F7
100
AcDbEntity
  8
0
100
AcDbBlockEnd
  0
BLOCK
  5
100
330
FF
100
AcDbEntity
  8
0
100
AcDbBlockBegin
  2
SW_BLOCK_DIMENSION_14
 70
     0
 10
0.0
 20
0.0
 30
0.0
  3
SW_BLOCK_DIMENSION_14
  1

  0
INSERT
  5
102
330
FF
100
AcDbEntity
  8
0
  6
Continuous
 62
     0
370
     0
100
AcDbBlockReference
  2
_ORIGIN
 10
12.5224953886
 20
5.1887726877
 30
0.0
 41
0.9483022837
 42
0.9483022837
 50
0.0
  0
LINE
  5
103
330
FF
100
AcDbEntity
  8
0
  6
Continuous
 62
     0
370
     0
100
AcDbLine
 10
3.2925925916
 20
9.671990294
 30
0.0
 11
2.2342592711
 21
9.671990294
 31
0.0
  0
LINE
  5
104
330
FF
100
AcDbEntity
  8
0
  6
Continuous
 62
     0
370
     0
100
AcDbLine
 10
2.2342592711
 20
9.671990294
 30
0.0
 11
2.2342592711
 21
4.9388883635
 31
0.0
  0
LINE
  5
105
330
FF
100
AcDbEntity
  8
0
  6
Continuous
 62
     0
370
     0
100
AcDbLine
 10
2.2342592711
 20
4.9388883635
 30
0.0
 11
3.2925925916
 21
4.9388883635
 31
0.0
  0
LINE
  5
106
330
FF
100
AcDbEntity
  8
0
  6
Continuous
 62
     0
370
     0
100
AcDbLine
 10
7.6493982924
 20
9.671990294
 30
0.0
 11
8.707731613
 21
9.671990294
 31
0.0
  0
LINE
  5
107
330
FF
100
AcDbEntity
  8
0
  6
Continuous
 62
     0
370
     0
100
AcDbLine
 10
8.707731613
 20
9.671990294
 30
0.0
 11
8.707731613
 21
4.9388883635
 31
0.0
  0
LINE
  5
108
330
FF
100
AcDbEntity
  8
0
  6
Continuous
 62
     0
370
     0
100
AcDbLine
 10
8.707731613
 20
4.9388883635
 30
0.0
 11
7.6493982924
 21
4.9388883635
 31
0.0
  0
LINE
  5
109
330
FF
100
AcDbEntity
  8
0
  6
Continuous
 62
     0
370
     0
100
AcDbLine
 10
20.5099578393
 20
5.1887726877
 30
0.0
 11
10.9419915825
 21
5.1887726877
 31
0.0
  0
MTEXT
  5
10A
330
FF
100
AcDbEntity
  8
0
  6
Continuous
 62
     0
370
     0
100
AcDbMText
 10
1.190625
 20
4.0927900738
 30
0.0
 40
3.175
 41
0.0
 71
     1
 72
     1
  1

  7
SLDTEXTSTYLE0
 73
     1
 44
1.0
  0
MTEXT
  5
10B
330
FF
100
AcDbEntity
  8
0
  6
Continuous
 62
     0
370
     0
100
AcDbMText
 10
3.2925925916
 20
9.0316784373
 30
0.0
 40
3.175
 41
0.0
 71
     1
 72
     1
  1
0"
  7
SLDTEXTSTYLE0
 73
     1
 44
1.0
  0
MTEXT
  5
10C
330
FF
100
AcDbEntity
  8
0
  6
Continuous
 62
     0
370
     0
100
AcDbMText
 10
4.2950697243
 20
4.0927898409
 30
0.0
 40
3.175
 41
0.0
 71
     1
 72
     1
  1
0
  7
SLDTEXTSTYLE0
 73
     1
 44
1.0
  0
MTEXT
  5
10D
330
FF
100
AcDbEntity
  8
0
  6
Continuous
 62
     0
370
     0
100
AcDbMText
 10
10.9566905156
 20
4.0927900738
 30
0.0
 40
3.175
 41
0.0
 71
     1
 72
     1
  1

  7
SLDTEXTSTYLE0
 73
     1
 44
1.0
  0
ENDBLK
  5
101
330
FF
100
AcDbEntity
  8
0
100
AcDbBlockEnd
  0
BLOCK
  5
110
330
10F
100
AcDbEntity
  8
0
100
AcDbBlockBegin
  2
SW_BLOCK_DIMENSION_15
 70
     0
 10
0.0
 20
0.0
 30
0.0
  3
SW_BLOCK_DIMENSION_15
  1

  0
SOLID
  5
112
330
10F
100
AcDbEntity
  8
0
  6
Continuous
 62
     0
370
     0
100
AcDbTrace
 10
14.5156896111
 20
5.1887726877
 30
0.0
 11
14.0415384692
 21
2.1067902658
 31
0.0
 12
14.9898407529
 22
2.1067902658
 32
0.0
 13
14.9898407529
 23
2.1067902658
 33
0.0
  0
LINE
  5
113
330
10F
100
AcDbEntity
  8
0
  6
Continuous
 62
     0
370
     0
100
AcDbLine
 10
4.2891897028
 20
9.671990294
 30
0.0
 11
3.2308563823
 21
9.671990294
 31
0.0
  0
LINE
  5
114
330
10F
100
AcDbEntity
  8
0
  6
Continuous
 62
     0
370
     0
100
AcDbLine
 10
3.2308563823
 20
9.671990294
 30
0.0
 11
3.2308563823
 21
4.9388883635
 31
0.0
  0
LINE
  5
115
330
10F
100
AcDbEntity
  8
0
  6
Continuous
 62
     0
370
     0
100
AcDbLine
 10
3.2308563823
 20
4.9388883635
 30
0.0
 11
4.2891897028
 21
4.9388883635
 31
0.0
  0
LINE
  5
116
330
10F
100
AcDbEntity
  8
0
  6
Continuous
 62
     0
370
     0
100
AcDbLine
 10
8.6459954036
 20
9.671990294
 30
0.0
 11
9.7043287242
 21
9.671990294
 31
0.0
  0
LINE
  5
117
330
10F
100
AcDbEntity
  8
0
  6
Continuous
 62
     0
370
     0
100
AcDbLine
 10
9.7043287242
 20
9.671990294
 30
0.0
 11
9.7043287242
 21
4.9388883635
 31
0.0
  0
LINE
  5
118
330
10F
100
AcDbEntity
  8
0
  6
Continuous
 62
     0
370
     0
100
AcDbLine
 10
9.7043287242
 20
4.9388883635
 30
0.0
 11
8.6459954036
 21
4.9388883635
 31
0.0
  0
LINE
  5
119
330
10F
100
AcDbEntity
  8
0
  6
Continuous
 62
     0
370
     0
100
AcDbLine
 10
21.7231520617
 20
5.1887726877
 30
0.0
 11
12.935185805
 21
5.1887726877
 31
0.0
  0
LINE
  5
11A
330
10F
100
AcDbEntity
  8
0
  6
Continuous
 62
     0
370
     0
100
AcDbLine
 10
14.5156896111
 20
-20.2112273123
 30
0.0
 11
14.5156896111
 21
5.1887726877
 31
0.0
  0
MTEXT
  5
11B
330
10F
100
AcDbEntity
  8
0
  6
Continuous
 62
     0
370
     0
100
AcDbMText
 10
1.190625
 20
4.0927900738
 30
0.0
 40
3.175
 41
0.0
 71
     1
 72
     1
  1

  7
SLDTEXTSTYLE0
 73
     1
 44
1.0
  0
MTEXT
  5
11C
330
10F
100
AcDbEntity
  8
0
  6
Continuous
 62
     0
370
     0
100
AcDbMText
 10
4.2891897028
 20
9.0316784373
 30
0.0
 40
3.175
 41
0.0
 71
     1
 72
     1
  1
1"
  7
SLDTEXTSTYLE0
 73
     1
 44
1.0
  0
MTEXT
  5
11D
330
10F
100
AcDbEntity
  8
0
  6
Continuous
 62
     0
370
     0
100
AcDbMText
 10
1.1759259505
 20
4.0927898409
 30
0.0
 40
3.175
 41
0.0
 71
     1
 72
     1
  1
25,40
  7
SLDTEXTSTYLE0
 73
     1
 44
1.0
  0
MTEXT
  5
11E
330
10F
100
AcDbEntity
  8
0
  6
Continuous
 62
     0
370
     0
100
AcDbMText
 10
12.949884738
 20
4.0927900738
 30
0.0
 40
3.175
 41
0.0
 71
     1
 72
     1
  1

  7
SLDTEXTSTYLE0
 73
     1
 44
1.0
  0
ENDBLK
  5
111
330
10F
100
AcDbEntity
  8
0
100
AcDbBlockEnd
  0
BLOCK
  5
121
330
120
100
AcDbEntity
  8
0
100
AcDbBlockBegin
  2
SW_BLOCK_DIMENSION_16
 70
     0
 10
0.0
 20
0.0
 30
0.0
  3
SW_BLOCK_DIMENSION_16
  1

  0
SOLID
  5
123
330
120
100
AcDbEntity
  8
0
  6
Continuous
 62
     0
370
     0
100
AcDbTrace
 10
14.5156896111
 20
5.1887726877
 30
0.0
 11
14.0415384692
 21
2.1067902658
 31
0.0
 12
14.9898407529
 22
2.1067902658
 32
0.0
 13
14.9898407529
 23
2.1067902658
 33
0.0
  0
LINE
  5
124
330
120
100
AcDbEntity
  8
0
  6
Continuous
 62
     0
370
     0
100
AcDbLine
 10
4.2891897028
 20
9.671990294
 30
0.0
 11
3.2308563823
 21
9.671990294
 31
0.0
  0
LINE
  5
125
330
120
100
AcDbEntity
  8
0
  6
Continuous
 62
     0
370
     0
100
AcDbLine
 10
3.2308563823
 20
9.671990294
 30
0.0
 11
3.2308563823
 21
4.9388883635
 31
0.0
  0
LINE
  5
126
330
120
100
AcDbEntity
  8
0
  6
Continuous
 62
     0
370
     0
100
AcDbLine
 10
3.2308563823
 20
4.9388883635
 30
0.0
 11
4.2891897028
 21
4.9388883635
 31
0.0
  0
LINE
  5
127
330
120
100
AcDbEntity
  8
0
  6
Continuous
 62
     0
370
     0
100
AcDbLine
 10
8.6459954036
 20
9.671990294
 30
0.0
 11
9.7043287242
 21
9.671990294
 31
0.0
  0
LINE
  5
128
330
120
100
AcDbEntity
  8
0
  6
Continuous
 62
     0
370
     0
100
AcDbLine
 10
9.7043287242
 20
9.671990294
 30
0.0
 11
9.7043287242
 21
4.9388883635
 31
0.0
  0
LINE
  5
129
330
120
100
AcDbEntity
  8
0
  6
Continuous
 62
     0
370
     0
100
AcDbLine
 10
9.7043287242
 20
4.9388883635
 30
0.0
 11
8.6459954036
 21
4.9388883635
 31
0.0
  0
LINE
  5
12A
330
120
100
AcDbEntity
  8
0
  6
Continuous
 62
     0
370
     0
100
AcDbLine
 10
21.7231520617
 20
5.1887726877
 30
0.0
 11
12.935185805
 21
5.1887726877
 31
0.0
  0
LINE
  5
12B
330
120
100
AcDbEntity
  8
0
  6
Continuous
 62
     0
370
     0
100
AcDbLine
 10
14.5156896111
 20
-20.2112273123
 30
0.0
 11
14.5156896111
 21
5.1887726877
 31
0.0
  0
MTEXT
  5
12C
330
120
100
AcDbEntity
  8
0
  6
Continuous
 62
     0
370
     0
100
AcDbMText
 10
1.190625
 20
4.0927900738
 30
0.0
 40
3.175
 41
0.0
 71
     1
 72
     1
  1

  7
SLDTEXTSTYLE0
 73
     1
 44
1.0
  0
MTEXT
  5
12D
330
120
100
AcDbEntity
  8
0
  6
Continuous
 62
     0
370
     0
100
AcDbMText
 10
4.2891897028
 20
9.0316784373
 30
0.0
 40
3.175
 41
0.0
 71
     1
 72
     1
  1
2"
  7
SLDTEXTSTYLE0
 73
     1
 44
1.0
  0
MTEXT
  5
12E
330
120
100
AcDbEntity
  8
0
  6
Continuous
 62
     0
370
     0
100
AcDbMText
 10
1.1759259505
 20
4.0927898409
 30
0.0
 40
3.175
 41
0.0
 71
     1
 72
     1
  1
50,80
  7
SLDTEXTSTYLE0
 73
     1
 44
1.0
  0
MTEXT
  5
12F
330
120
100
AcDbEntity
  8
0
  6
Continuous
 62
     0
370
     0
100
AcDbMText
 10
12.949884738
 20
4.0927900738
 30
0.0
 40
3.175
 41
0.0
 71
     1
 72
     1
  1

  7
SLDTEXTSTYLE0
 73
     1
 44
1.0
  0
ENDBLK
  5
122
330
120
100
AcDbEntity
  8
0
100
AcDbBlockEnd
  0
BLOCK
  5
132
330
131
100
AcDbEntity
  8
0
100
AcDbBlockBegin
  2
SW_BLOCK_DIMENSION_17
 70
     0
 10
0.0
 20
0.0
 30
0.0
  3
SW_BLOCK_DIMENSION_17
  1

  0
SOLID
  5
134
330
131
100
AcDbEntity
  8
0
  6
Continuous
 62
     0
370
     0
100
AcDbTrace
 10
14.5156896111
 20
5.1887726877
 30
0.0
 11
14.0415384692
 21
2.1067902658
 31
0.0
 12
14.9898407529
 22
2.1067902658
 32
0.0
 13
14.9898407529
 23
2.1067902658
 33
0.0
  0
LINE
  5
135
330
131
100
AcDbEntity
  8
0
  6
Continuous
 62
     0
370
     0
100
AcDbLine
 10
4.2891897028
 20
9.671990294
 30
0.0
 11
3.2308563823
 21
9.671990294
 31
0.0
  0
LINE
  5
136
330
131
100
AcDbEntity
  8
0
  6
Continuous
 62
     0
370
     0
100
AcDbLine
 10
3.2308563823
 20
9.671990294
 30
0.0
 11
3.2308563823
 21
4.9388883635
 31
0.0
  0
LINE
  5
137
330
131
100
AcDbEntity
  8
0
  6
Continuous
 62
     0
370
     0
100
AcDbLine
 10
3.2308563823
 20
4.9388883635
 30
0.0
 11
4.2891897028
 21
4.9388883635
 31
0.0
  0
LINE
  5
138
330
131
100
AcDbEntity
  8
0
  6
Continuous
 62
     0
370
     0
100
AcDbLine
 10
8.6459954036
 20
9.671990294
 30
0.0
 11
9.7043287242
 21
9.671990294
 31
0.0
  0
LINE
  5
139
330
131
100
AcDbEntity
  8
0
  6
Continuous
 62
     0
370
     0
100
AcDbLine
 10
9.7043287242
 20
9.671990294
 30
0.0
 11
9.7043287242
 21
4.9388883635
 31
0.0
  0
LINE
  5
13A
330
131
100
AcDbEntity
  8
0
  6
Continuous
 62
     0
370
     0
100
AcDbLine
 10
9.7043287242
 20
4.9388883635
 30
0.0
 11
8.6459954036
 21
4.9388883635
 31
0.0
  0
LINE
  5
13B
330
131
100
AcDbEntity
  8
0
  6
Continuous
 62
     0
370
     0
100
AcDbLine
 10
21.7231520617
 20
5.1887726877
 30
0.0
 11
12.935185805
 21
5.1887726877
 31
0.0
  0
LINE
  5
13C
330
131
100
AcDbEntity
  8
0
  6
Continuous
 62
     0
370
     0
100
AcDbLine
 10
14.5156896111
 20
-20.2112273123
 30
0.0
 11
14.5156896111
 21
5.1887726877
 31
0.0
  0
MTEXT
  5
13D
330
131
100
AcDbEntity
  8
0
  6
Continuous
 62
     0
370
     0
100
AcDbMText
 10
1.190625
 20
4.0927900738
 30
0.0
 40
3.175
 41
0.0
 71
     1
 72
     1
  1

  7
SLDTEXTSTYLE0
 73
     1
 44
1.0
  0
MTEXT
  5
13E
330
131
100
AcDbEntity
  8
0
  6
Continuous
 62
     0
370
     0
100
AcDbMText
 10
4.2891897028
 20
9.0316784373
 30
0.0
 40
3.175
 41
0.0
 71
     1
 72
     1
  1
3"
  7
SLDTEXTSTYLE0
 73
     1
 44
1.0
  0
MTEXT
  5
13F
330
131
100
AcDbEntity
  8
0
  6
Continuous
 62
     0
370
     0
100
AcDbMText
 10
1.1759259505
 20
4.0927898409
 30
0.0
 40
3.175
 41
0.0
 71
     1
 72
     1
  1
76,20
  7
SLDTEXTSTYLE0
 73
     1
 44
1.0
  0
MTEXT
  5
140
330
131
100
AcDbEntity
  8
0
  6
Continuous
 62
     0
370
     0
100
AcDbMText
 10
12.949884738
 20
4.0927900738
 30
0.0
 40
3.175
 41
0.0
 71
     1
 72
     1
  1

  7
SLDTEXTSTYLE0
 73
     1
 44
1.0
  0
ENDBLK
  5
133
330
131
100
AcDbEntity
  8
0
100
AcDbBlockEnd
  0
BLOCK
  5
143
330
142
100
AcDbEntity
  8
0
100
AcDbBlockBegin
  2
SW_BLOCK_DIMENSION_18
 70
     0
 10
0.0
 20
0.0
 30
0.0
  3
SW_BLOCK_DIMENSION_18
  1

  0
SOLID
  5
145
330
142
100
AcDbEntity
  8
0
  6
Continuous
 62
     0
370
     0
100
AcDbTrace
 10
16.8675417449
 20
5.1887726877
 30
0.0
 11
16.3933906031
 21
2.1067902658
 31
0.0
 12
17.3416928867
 22
2.1067902658
 32
0.0
 13
17.3416928867
 23
2.1067902658
 33
0.0
  0
LINE
  5
146
330
142
100
AcDbEntity
  8
0
  6
Continuous
 62
     0
370
     0
100
AcDbLine
 10
5.4651157698
 20
9.671990294
 30
0.0
 11
4.4067824492
 21
9.671990294
 31
0.0
  0
LINE
  5
147
330
142
100
AcDbEntity
  8
0
  6
Continuous
 62
     0
370
     0
100
AcDbLine
 10
4.4067824492
 20
9.671990294
 30
0.0
 11
4.4067824492
 21
4.9388883635
 31
0.0
  0
LINE
  5
148
330
142
100
AcDbEntity
  8
0
  6
Continuous
 62
     0
370
     0
100
AcDbLine
 10
4.4067824492
 20
4.9388883635
 30
0.0
 11
5.4651157698
 21
4.9388883635
 31
0.0
  0
LINE
  5
149
330
142
100
AcDbEntity
  8
0
  6
Continuous
 62
     0
370
     0
100
AcDbLine
 10
9.8219214706
 20
9.671990294
 30
0.0
 11
10.8802547911
 21
9.671990294
 31
0.0
  0
LINE
  5
14A
330
142
100
AcDbEntity
  8
0
  6
Continuous
 62
     0
370
     0
100
AcDbLine
 10
10.8802547911
 20
9.671990294
 30
0.0
 11
10.8802547911
 21
4.9388883635
 31
0.0
  0
LINE
  5
14B
330
142
100
AcDbEntity
  8
0
  6
Continuous
 62
     0
370
     0
100
AcDbLine
 10
10.8802547911
 20
4.9388883635
 30
0.0
 11
9.8219214706
 21
4.9388883635
 31
0.0
  0
LINE
  5
14C
330
142
100
AcDbEntity
  8
0
  6
Continuous
 62
     0
370
     0
100
AcDbLine
 10
24.0750041956
 20
5.1887726877
 30
0.0
 11
15.2870379388
 21
5.1887726877
 31
0.0
  0
LINE
  5
14D
330
142
100
AcDbEntity
  8
0
  6
Continuous
 62
     0
370
     0
100
AcDbLine
 10
16.8675417449
 20
-20.2112273123
 30
0.0
 11
16.8675417449
 21
5.1887726877
 31
0.0
  0
MTEXT
  5
14E
330
142
100
AcDbEntity
  8
0
  6
Continuous
 62
     0
370
     0
100
AcDbMText
 10
1.190625
 20
4.0927900738
 30
0.0
 40
3.175
 41
0.0
 71
     1
 72
     1
  1

  7
SLDTEXTSTYLE0
 73
     1
 44
1.0
  0
MTEXT
  5
14F
330
142
100
AcDbEntity
  8
0
  6
Continuous
 62
     0
370
     0
100
AcDbMText
 10
5.4651157698
 20
9.0316784373
 30
0.0
 40
3.175
 41
0.0
 71
     1
 72
     1
  1
4"
  7
SLDTEXTSTYLE0
 73
     1
 44
1.0
  0
MTEXT
  5
150
330
142
100
AcDbEntity
  8
0
  6
Continuous
 62
     0
370
     0
100
AcDbMText
 10
1.1759259505
 20
4.0927898409
 30
0.0
 40
3.175
 41
0.0
 71
     1
 72
     1
  1
101,60
  7
SLDTEXTSTYLE0
 73
     1
 44
1.0
  0
MTEXT
  5
151
330
142
100
AcDbEntity
  8
0
  6
Continuous
 62
     0
370
     0
100
AcDbMText
 10
15.3017368719
 20
4.0927900738
 30
0.0
 40
3.175
 41
0.0
 71
     1
 72
     1
  1

  7
SLDTEXTSTYLE0
 73
     1
 44
1.0
  0
ENDBLK
  5
144
330
142
100
AcDbEntity
  8
0
100
AcDbBlockEnd
  0
BLOCK
  5
154
330
153
100
AcDbEntity
  8
0
100
AcDbBlockBegin
  2
SW_BLOCK_DIMENSION_19
 70
     0
 10
0.0
 20
0.0
 30
0.0
  3
SW_BLOCK_DIMENSION_19
  1

  0
SOLID
  5
156
330
153
100
AcDbEntity
  8
0
  6
Continuous
 62
     0
370
     0
100
AcDbTrace
 10
12.5224953886
 20
5.1887726877
 30
0.0
 11
12.0483442468
 21
2.1067902658
 31
0.0
 12
12.9966465304
 22
2.1067902658
 32
0.0
 13
12.9966465304
 23
2.1067902658
 33
0.0
  0
LINE
  5
157
330
153
100
AcDbEntity
  8
0
  6
Continuous
 62
     0
370
     0
100
AcDbLine
 10
3.2925925916
 20
9.671990294
 30
0.0
 11
2.2342592711
 21
9.671990294
 31
0.0
  0
LINE
  5
158
330
153
100
AcDbEntity
  8
0
  6
Continuous
 62
     0
370
     0
100
AcDbLine
 10
2.2342592711
 20
9.671990294
 30
0.0
 11
2.2342592711
 21
4.9388883635
 31
0.0
  0
LINE
  5
159
330
153
100
AcDbEntity
  8
0
  6
Continuous
 62
     0
370
     0
100
AcDbLine
 10
2.2342592711
 20
4.9388883635
 30
0.0
 11
3.2925925916
 21
4.9388883635
 31
0.0
  0
LINE
  5
15A
330
153
100
AcDbEntity
  8
0
  6
Continuous
 62
     0
370
     0
100
AcDbLine
 10
7.6493982924
 20
9.671990294
 30
0.0
 11
8.707731613
 21
9.671990294
 31
0.0
  0
LINE
  5
15B
330
153
100
AcDbEntity
  8
0
  6
Continuous
 62
     0
370
     0
100
AcDbLine
 10
8.707731613
 20
9.671990294
 30
0.0
 11
8.707731613
 21
4.9388883635
 31
0.0
  0
LINE
  5
15C
330
153
100
AcDbEntity
  8
0
  6
Continuous
 62
     0
370
     0
100
AcDbLine
 10
8.707731613
 20
4.9388883635
 30
0.0
 11
7.6493982924
 21
4.9388883635
 31
0.0
  0
LINE
  5
15D
330
153
100
AcDbEntity
  8
0
  6
Continuous
 62
     0
370
     0
100
AcDbLine
 10
19.7299578393
 20
5.1887726877
 30
0.0
 11
10.9419915825
 21
5.1887726877
 31
0.0
  0
LINE
  5
15E
330
153
100
AcDbEntity
  8
0
  6
Continuous
 62
     0
370
     0
100
AcDbLine
 10
12.5224953886
 20
-20.2112273123
 30
0.0
 11
12.5224953886
 21
5.1887726877
 31
0.0
  0
MTEXT
  5
15F
330
153
100
AcDbEntity
  8
0
  6
Continuous
 62
     0
370
     0
100
AcDbMText
 10
1.190625
 20
4.0927900738
 30
0.0
 40
3.175
 41
0.0
 71
     1
 72
     1
  1

  7
SLDTEXTSTYLE0
 73
     1
 44
1.0
  0
MTEXT
  5
160
330
153
100
AcDbEntity
  8
0
  6
Continuous
 62
     0
370
     0
100
AcDbMText
 10
3.2925925916
 20
9.0316784373
 30
0.0
 40
3.175
 41
0.0
 71
     1
 72
     1
  1
5"
  7
SLDTEXTSTYLE0
 73
     1
 44
1.0
  0
MTEXT
  5
161
330
153
100
AcDbEntity
  8
0
  6
Continuous
 62
     0
370
     0
100
AcDbMText
 10
1.9432179397
 20
4.0927898409
 30
0.0
 40
3.175
 41
0.0
 71
     1
 72
     1
  1
127
  7
SLDTEXTSTYLE0
 73
     1
 44
1.0
  0
MTEXT
  5
162
330
153
100
AcDbEntity
  8
0
  6
Continuous
 62
     0
370
     0
100
AcDbMText
 10
10.9566905156
 20
4.0927900738
 30
0.0
 40
3.175
 41
0.0
 71
     1
 72
     1
  1

  7
SLDTEXTSTYLE0
 73
     1
 44
1.0
  0
ENDBLK
  5
155
330
153
100
AcDbEntity
  8
0
100
AcDbBlockEnd
  0
BLOCK
  5
165
330
164
100
AcDbEntity
  8
0
100
AcDbBlockBegin
  2
SW_NOTE_0
 70
     0
 10
0.0
 20
0.0
 30
0.0
  3
SW_NOTE_0
  1

  0
MTEXT
  5
167
330
164
100
AcDbEntity
  8
0
  6
Continuous
 62
     0
370
     0
100
AcDbMText
 10
6.7138020833
 20
4.7749217527
 30
0.0
 40
3.7041666667
 41
0.0
 71
     2
 72
     1
  1
(Inch)
  7
SLDTEXTSTYLE0
 73
     1
 44
1.0
  0
MTEXT
  5
168
330
164
100
AcDbEntity
  8
0
  6
Continuous
 62
     0
370
     0
100
AcDbMText
 10
6.7309508326
 20
-1.1639672404
 30
0.0
 40
3.7041666667
 41
0.0
 71
     2
 72
     1
  1
mm
  7
SLDTEXTSTYLE0
 73
     1
 44
1.0
  0
ENDBLK
  5
166
330
164
100
AcDbEntity
  8
0
100
AcDbBlockEnd
  0
BLOCK
  5
170
330
16F
100
AcDbEntity
  8
0
100
AcDbBlockBegin
  2
SW_NOTE_1
 70
     0
 10
0.0
 20
0.0
 30
0.0
  3
SW_NOTE_1
  1

  0
MTEXT
  5
172
330
16F
100
AcDbEntity
  8
0
  6
Continuous
 62
     0
370
     0
100
AcDbMText
 10
19.893359375
 20
4.0927900738
 30
0.0
 40
3.175
 41
0.0
 71
     2
 72
     1
  1
ABP-Beyerle GmbH
  7
SLDTEXTSTYLE0
 73
     1
 44
1.0
  0
MTEXT
  5
173
330
16F
100
AcDbEntity
  8
0
  6
Continuous
 62
     0
370
     0
100
AcDbMText
 10
20.6558884293
 20
-0.1405432084
 30
0.0
 40
3.175
 41
0.0
 71
     2
 72
     1
  1
Im Schollengarten 24b, 76646 Bruchsal
  7
SLDTEXTSTYLE0
 73
     1
 44
1.0
  0
MTEXT
  5
174
330
16F
100
AcDbEntity
  8
0
  6
Continuous
 62
     0
370
     0
100
AcDbMText
 10
20.7863491923
 20
-4.3738764906
 30
0.0
 40
3.175
 41
0.0
 71
     2
 72
     1
  1
Tel. +49 (0)7251-9127-0, Fax. +49 (0)7251-9127-29
  7
SLDTEXTSTYLE0
 73
     1
 44
1.0
  0
MTEXT
  5
175
330
16F
100
AcDbEntity
  8
0
  6
Continuous
 62
     0
370
     0
100
AcDbMText
 10
20.8392552227
 20
-8.6072097727
 30
0.0
 40
3.175
 41
0.0
 71
     2
 72
     1
  1
info@abp-beyerle.de, www.abp-beyerle.de
  7
SLDTEXTSTYLE0
 73
     1
 44
1.0
  0
ENDBLK
  5
171
330
16F
100
AcDbEntity
  8
0
100
AcDbBlockEnd
  0
ENDSEC
  0
SECTION
  2
ENTITIES
  0
INSERT
  5
16B
330
1F
100
AcDbEntity
  8
0
100
AcDbBlockReference
  2
Block1
 10
19.561342692
 20
-6.9223244521
 30
0.0
  0
MTEXT
  5
16D
330
1F
100
AcDbEntity
  8
0
  6
Continuous
 62
     7
370
     0
100
AcDbMText
 10
402.5
 20
14.7189135832
 30
0.0
 40
6.35
 41
0.0
 71
     1
 72
     1
  1
1:1
  7
SLDTEXTSTYLE1
 73
     1
 44
1.0
  0
MTEXT
  5
16E
330
1F
100
AcDbEntity
  8
0
  6
Continuous
 62
     7
370
     0
100
AcDbMText
 10
168.4090458961
 20
14.7189131175
 30
0.0
 40
6.35
 41
0.0
 71
     1
 72
     1
  1
110.00056
  7
SLDTEXTSTYLE1
 73
     1
 44
1.0
  0
INSERT
  5
176
330
1F
100
AcDbEntity
  8
0
  6
Continuous
 62
     7
370
     0
100
AcDbBlockReference
  2
SW_NOTE_1
 10
35.4202146835
 20
20.1681939512
 30
0.0
  0
LINE
  5
177
330
1F
100
AcDbEntity
  8
0
  6
Continuous
 62
     7
370
    15
100
AcDbLine
 10
166.029362757
 20
188.9948211561
 30
0.0
 11
166.029362757
 21
189.7379002863
 31
0.0
  0
LINE
  5
178
330
1F
100
AcDbEntity
  8
0
  6
Continuous
 62
     7
370
    15
100
AcDbLine
 10
161.029362757
 20
189.7379002863
 30
0.0
 11
161.029362757
 21
188.9948211561
 31
0.0
  0
LINE
  5
179
330
1F
100
AcDbEntity
  8
0
  6
Continuous
 62
     7
370
    15
100
AcDbLine
 10
161.029362757
 20
188.9948211561
 30
0.0
 11
161.474362757
 21
188.7379002863
 31
0.0
  0
LINE
  5
17A
330
1F
100
AcDbEntity
  8
0
  6
Continuous
 62
     7
370
    15
100
AcDbLine
 10
165.584362757
 20
188.7379002863
 30
0.0
 11
166.029362757
 21
188.9948211561
 31
0.0
  0
LINE
  5
17B
330
1F
100
AcDbEntity
  8
0
  6
Continuous
 62
     7
370
    15
100
AcDbLine
 10
166.7004166549
 20
210.2480814065
 30
0.0
 11
167.779362757
 21
209.6450872682
 31
0.0
  0
LINE
  5
17C
330
1F
100
AcDbEntity
  8
0
  6
Continuous
 62
     7
370
    15
100
AcDbLine
 10
160.201050791
 20
210.1572884185
 30
0.0
 11
163.4245240449
 21
212.0788902281
 31
0.0
  0
LINE
  5
17D
330
1F
100
AcDbEntity
  8
0
  6
Continuous
 62
     7
370
    15
100
AcDbLine
 10
163.4245240449
 20
212.0788902281
 30
0.0
 11
166.7004166549
 21
210.2480814065
 31
0.0
  0
LINE
  5
17E
330
1F
100
AcDbEntity
  8
0
  6
Continuous
 62
     7
370
    15
100
AcDbLine
 10
159.279362757
 20
209.6078446185
 30
0.0
 11
160.201050791
 21
210.1572884185
 31
0.0
  0
CIRCLE
  5
17F
330
1F
100
AcDbEntity
  8
0
  6
Continuous
 62
     7
370
    15
100
AcDbCircle
 10
163.529362757
 20
204.5740689659
 30
0.0
 40
5.699999999999983
  0
LINE
  5
180
330
1F
100
AcDbEntity
  8
0
  6
Continuous
 62
     7
370
    15
100
AcDbLine
 10
161.862381226
 20
207.6238732069
 30
0.0
 11
160.0546640422
 21
204.6553227329
 31
0.0
  0
LINE
  5
181
330
1F
100
AcDbEntity
  8
0
  6
Continuous
 62
     7
370
    15
100
AcDbLine
 10
160.0546640422
 20
204.6553227329
 30
0.0
 11
161.7216455732
 21
201.6055184919
 31
0.0
  0
LINE
  5
182
330
1F
100
AcDbEntity
  8
0
  6
Continuous
 62
     7
370
    15
100
AcDbLine
 10
165.196344288
 20
201.5242647248
 30
0.0
 11
161.7216455732
 21
201.6055184919
 31
0.0
  0
LINE
  5
183
330
1F
100
AcDbEntity
  8
0
  6
Continuous
 62
     7
370
    15
100
AcDbLine
 10
167.0040614718
 20
204.4928151988
 30
0.0
 11
165.196344288
 21
201.5242647248
 31
0.0
  0
LINE
  5
184
330
1F
100
AcDbEntity
  8
0
  6
Continuous
 62
     7
370
    15
100
AcDbLine
 10
167.0040614718
 20
204.4928151988
 30
0.0
 11
165.3370799408
 21
207.5426194399
 31
0.0
  0
LINE
  5
185
330
1F
100
AcDbEntity
  8
0
  6
Continuous
 62
     7
370
    15
100
AcDbLine
 10
161.862381226
 20
207.6238732069
 30
0.0
 11
165.3370799408
 21
207.5426194399
 31
0.0
  0
CIRCLE
  5
186
330
1F
100
AcDbEntity
  8
0
  6
Continuous
 62
     7
370
    15
100
AcDbCircle
 10
163.529362757
 20
204.5740689659
 30
0.0
 40
6.500000000000004
  0
ARC
  5
187
330
1F
100
AcDbEntity
  8
0
  6
Continuous
 62
     7
370
    15
100
AcDbCircle
 10
163.529362757
 20
204.5740689659
 30
0.0
 40
3.009999999999995
100
AcDbArc
 50
88.6604163436
 51
148.6604163436
  0
ARC
  5
188
330
1F
100
AcDbEntity
  8
0
  6
Continuous
 62
     7
370
    15
100
AcDbCircle
 10
163.529362757
 20
204.5740689659
 30
0.0
 40
3.010000000000018
100
AcDbArc
 50
208.6604163436
 51
268.6604163436
  0
ARC
  5
189
330
1F
100
AcDbEntity
  8
0
  6
Continuous
 62
     7
370
    15
100
AcDbCircle
 10
163.529362757
 20
204.5740689659
 30
0.0
 40
3.010000000000012
100
AcDbArc
 50
268.6604163436
 51
328.6604163436
  0
ARC
  5
18A
330
1F
100
AcDbEntity
  8
0
  6
Continuous
 62
     7
370
    15
100
AcDbCircle
 10
163.529362757
 20
204.5740689659
 30
0.0
 40
3.009999999999983
100
AcDbArc
 50
28.6604163436
 51
88.6604163436
  0
ARC
  5
18B
330
1F
100
AcDbEntity
  8
0
  6
Continuous
 62
     7
370
    15
100
AcDbCircle
 10
163.529362757
 20
204.5740689659
 30
0.0
 40
3.010000000000018
100
AcDbArc
 50
148.6604163436
 51
208.6604163436
  0
ARC
  5
18C
330
1F
100
AcDbEntity
  8
0
  6
Continuous
 62
     7
370
    15
100
AcDbCircle
 10
163.529362757
 20
204.5740689659
 30
0.0
 40
3.01000000000001
100
AcDbArc
 50
328.6604163436
 51
28.6604163436
  0
LINE
  5
18D
330
1F
100
AcDbEntity
  8
0
  6
Continuous
 62
     7
370
    15
100
AcDbLine
 10
166.029362757
 20
188.9948211561
 30
0.0
 11
161.029362757
 21
188.9948211561
 31
0.0
  0
LINE
  5
18E
330
1F
100
AcDbEntity
  8
0
  6
Continuous
 62
     7
370
    15
100
AcDbLine
 10
165.584362757
 20
188.7379002863
 30
0.0
 11
161.474362757
 21
188.7379002863
 31
0.0
  0
LINE
  5
18F
330
1F
100
AcDbEntity
  8
0
  6
Continuous
 62
     7
370
    15
100
AcDbLine
 10
141.279362757
 20
198.1379002863
 30
0.0
 11
145.779362757
 21
198.1379002863
 31
0.0
  0
ARC
  5
190
330
1F
100
AcDbEntity
  8
0
  6
Continuous
 62
     7
370
    15
100
AcDbCircle
 10
141.279362757
 20
204.2379002863
 30
0.0
 40
6.099999999999994
100
AcDbArc
 50
90.0
 51
270.0
  0
ARC
  5
191
330
1F
100
AcDbEntity
  8
0
  6
Continuous
 62
     7
370
    15
100
AcDbCircle
 10
163.529362757
 20
202.2379002863
 30
0.0
 40
4.249999999999991
100
AcDbArc
 50
250.5985618444
 51
289.4014381556
  0
LINE
  5
192
330
1F
100
AcDbEntity
  8
0
  6
Continuous
 62
     7
370
    15
100
AcDbLine
 10
167.779362757
 20
214.7379002863
 30
0.0
 11
167.779362757
 21
209.4921478591
 31
0.0
  0
LINE
  5
193
330
1F
100
AcDbEntity
  8
0
  6
Continuous
 62
     7
370
    15
100
AcDbLine
 10
193.529362757
 20
214.7379002863
 30
0.0
 11
167.779362757
 21
214.7379002863
 31
0.0
  0
LINE
  5
194
330
1F
100
AcDbEntity
  8
0
  6
Continuous
 62
     7
370
    15
100
AcDbLine
 10
193.529362757
 20
189.7379002863
 30
0.0
 11
193.529362757
 21
214.7379002863
 31
0.0
  0
LINE
  5
195
330
1F
100
AcDbEntity
  8
0
  6
Continuous
 62
     7
370
    15
100
AcDbLine
 10
133.529362757
 20
189.7379002863
 30
0.0
 11
193.529362757
 21
189.7379002863
 31
0.0
  0
LINE
  5
196
330
1F
100
AcDbEntity
  8
0
  6
Continuous
 62
     7
370
    15
100
AcDbLine
 10
133.529362757
 20
214.7379002863
 30
0.0
 11
133.529362757
 21
189.7379002863
 31
0.0
  0
LINE
  5
197
330
1F
100
AcDbEntity
  8
0
  6
Continuous
 62
     7
370
    15
100
AcDbLine
 10
159.279362757
 20
209.4921478591
 30
0.0
 11
159.279362757
 21
214.7379002863
 31
0.0
  0
LINE
  5
198
330
1F
100
AcDbEntity
  8
0
  6
Continuous
 62
     7
370
    15
100
AcDbLine
 10
181.279362757
 20
198.1379002863
 30
0.0
 11
185.779362757
 21
198.1379002863
 31
0.0
  0
ARC
  5
199
330
1F
100
AcDbEntity
  8
0
  6
Continuous
 62
     7
370
    15
100
AcDbCircle
 10
185.779362757
 20
204.2379002863
 30
0.0
 40
6.099999999999994
100
AcDbArc
 50
270.0
 51
90.0
  0
LINE
  5
19A
330
1F
100
AcDbEntity
  8
0
  6
Continuous
 62
     7
370
    15
100
AcDbLine
 10
185.779362757
 20
210.3379002863
 30
0.0
 11
181.279362757
 21
210.3379002863
 31
0.0
  0
ARC
  5
19B
330
1F
100
AcDbEntity
  8
0
  6
Continuous
 62
     7
370
    15
100
AcDbCircle
 10
181.279362757
 20
204.2379002863
 30
0.0
 40
6.099999999999994
100
AcDbArc
 50
90.0
 51
270.0
  0
LINE
  5
19C
330
1F
100
AcDbEntity
  8
0
  6
Continuous
 62
     7
370
    15
100
AcDbLine
 10
159.279362757
 20
214.7379002863
 30
0.0
 11
133.529362757
 21
214.7379002863
 31
0.0
  0
LINE
  5
19D
330
1F
100
AcDbEntity
  8
0
  6
Continuous
 62
     7
370
    15
100
AcDbLine
 10
145.779362757
 20
210.3379002863
 30
0.0
 11
141.279362757
 21
210.3379002863
 31
0.0
  0
ARC
  5
19E
330
1F
100
AcDbEntity
  8
0
  6
Continuous
 62
     7
370
    15
100
AcDbCircle
 10
145.779362757
 20
204.2379002863
 30
0.0
 40
6.099999999999994
100
AcDbArc
 50
270.0
 51
90.0
  0
LINE
  5
19F
330
1F
100
AcDbEntity
  8
0
  6
Continuous
 62
     7
370
    15
100
AcDbLine
 10
181.279362757
 20
200.9879002863
 30
0.0
 11
185.779362757
 21
200.9879002863
 31
0.0
  0
ARC
  5
1A0
330
1F
100
AcDbEntity
  8
0
  6
Continuous
 62
     7
370
    15
100
AcDbCircle
 10
185.779362757
 20
204.2379002863
 30
0.0
 40
3.250000000000028
100
AcDbArc
 50
270.0
 51
90.0
  0
LINE
  5
1A1
330
1F
100
AcDbEntity
  8
0
  6
Continuous
 62
     7
370
    15
100
AcDbLine
 10
185.779362757
 20
207.4879002863
 30
0.0
 11
181.279362757
 21
207.4879002863
 31
0.0
  0
ARC
  5
1A2
330
1F
100
AcDbEntity
  8
0
  6
Continuous
 62
     7
370
    15
100
AcDbCircle
 10
181.279362757
 20
204.2379002863
 30
0.0
 40
3.250000000000028
100
AcDbArc
 50
90.0
 51
270.0
  0
ARC
  5
1A3
330
1F
100
AcDbEntity
  8
0
  6
Continuous
 62
     7
370
    15
100
AcDbCircle
 10
145.779362757
 20
204.2379002863
 30
0.0
 40
3.250000000000028
100
AcDbArc
 50
270.0
 51
90.0
  0
LINE
  5
1A4
330
1F
100
AcDbEntity
  8
0
  6
Continuous
 62
     7
370
    15
100
AcDbLine
 10
145.779362757
 20
207.4879002863
 30
0.0
 11
141.279362757
 21
207.4879002863
 31
0.0
  0
LINE
  5
1A5
330
1F
100
AcDbEntity
  8
0
  6
Continuous
 62
     7
370
    15
100
AcDbLine
 10
141.279362757
 20
200.9879002863
 30
0.0
 11
145.779362757
 21
200.9879002863
 31
0.0
  0
ARC
  5
1A6
330
1F
100
AcDbEntity
  8
0
  6
Continuous
 62
     7
370
    15
100
AcDbCircle
 10
141.279362757
 20
204.2379002863
 30
0.0
 40
3.250000000000028
100
AcDbArc
 50
90.0
 51
270.0
  0
LINE
  5
1A7
330
1F
100
AcDbEntity
  8
0
  6
Continuous
 62
     7
370
    15
100
AcDbLine
 10
157.029362757
 20
138.4502980477
 30
0.0
 11
157.029362757
 21
137.8502980477
 31
0.0
  0
LINE
  5
1A8
330
1F
100
AcDbEntity
  8
0
  6
Continuous
 62
     7
370
    15
100
AcDbLine
 10
170.029362757
 20
137.8502980477
 30
0.0
 11
170.029362757
 21
138.4502980477
 31
0.0
  0
LINE
  5
1A9
330
1F
100
AcDbEntity
  8
0
  6
Continuous
 62
     7
370
    15
100
AcDbLine
 10
157.029362757
 20
144.6502980477
 30
0.0
 11
157.0287285591
 21
144.6499318934
 31
0.0
  0
LINE
  5
1AA
330
1F
100
AcDbEntity
  8
0
  6
Continuous
 62
     7
370
    15
100
AcDbLine
 10
157.179362757
 20
132.9502980477
 30
0.0
 11
157.179362757
 21
130.6502980477
 31
0.0
  0
LINE
  5
1AB
330
1F
100
AcDbEntity
  8
0
  6
Continuous
 62
     7
370
    15
100
AcDbLine
 10
169.879362757
 20
130.6502980477
 30
0.0
 11
169.879362757
 21
132.9502980477
 31
0.0
  0
LINE
  5
1AC
330
1F
100
AcDbEntity
  8
0
  6
Continuous
 62
     7
370
    15
100
AcDbLine
 10
170.029362757
 20
123.4502980477
 30
0.0
 11
170.029362757
 21
130.6502980477
 31
0.0
  0
LINE
  5
1AD
330
1F
100
AcDbEntity
  8
0
  6
Continuous
 62
     7
370
    15
100
AcDbLine
 10
157.029362757
 20
130.6502980477
 30
0.0
 11
157.029362757
 21
123.4502980477
 31
0.0
  0
ARC
  5
1AE
330
1F
100
AcDbEntity
  8
0
  6
Continuous
 62
     7
370
    15
100
AcDbCircle
 10
169.229362757
 20
123.4502980477
 30
0.0
 40
0.7999999999999972
100
AcDbArc
 50
270.0
 51
0.0
  0
ARC
  5
1AF
330
1F
100
AcDbEntity
  8
0
  6
Continuous
 62
     7
370
    15
100
AcDbCircle
 10
157.829362757
 20
123.4502980477
 30
0.0
 40
0.7999999999999972
100
AcDbArc
 50
180.0
 51
270.0
  0
LINE
  5
1B0
330
1F
100
AcDbEntity
  8
0
  6
Continuous
 62
     7
370
    15
100
AcDbLine
 10
167.529362757
 20
145.9597980477
 30
0.0
 11
166.838862757
 21
146.6502980477
 31
0.0
  0
LINE
  5
1B1
330
1F
100
AcDbEntity
  8
0
  6
Continuous
 62
     7
370
    15
100
AcDbLine
 10
160.219862757
 20
146.6502980477
 30
0.0
 11
159.529362757
 21
145.9597980477
 31
0.0
  0
LINE
  5
1B2
330
1F
100
AcDbEntity
  8
0
  6
Continuous
 62
     7
370
    15
100
AcDbLine
 10
167.529362757
 20
132.9502980477
 30
0.0
 11
167.529362757
 21
137.8502980477
 31
0.0
  0
LINE
  5
1B3
330
1F
100
AcDbEntity
  8
0
  6
Continuous
 62
     7
370
    15
100
AcDbLine
 10
167.529362757
 20
144.6502980477
 30
0.0
 11
167.529362757
 21
145.9597980477
 31
0.0
  0
LINE
  5
1B4
330
1F
100
AcDbEntity
  8
0
  6
Continuous
 62
     7
370
    15
100
AcDbLine
 10
159.529362757
 20
145.9597980477
 30
0.0
 11
159.529362757
 21
144.6502980477
 31
0.0
  0
LINE
  5
1B5
330
1F
100
AcDbEntity
  8
0
  6
Continuous
 62
     7
370
    15
100
AcDbLine
 10
159.529362757
 20
137.8502980477
 30
0.0
 11
159.529362757
 21
132.9502980477
 31
0.0
  0
LINE
  5
1B6
330
1F
100
AcDbEntity
  8
0
  6
Continuous
 62
     7
370
    15
100
AcDbLine
 10
166.7004166549
 20
138.4502980477
 30
0.0
 11
169.9763092649
 21
138.4502980477
 31
0.0
  0
LINE
  5
1B7
330
1F
100
AcDbEntity
  8
0
  6
Continuous
 62
     7
370
    15
100
AcDbLine
 10
163.4245240449
 20
138.4502980477
 30
0.0
 11
166.7004166549
 21
138.4502980477
 31
0.0
  0
LINE
  5
1B8
330
1F
100
AcDbEntity
  8
0
  6
Continuous
 62
     7
370
    15
100
AcDbLine
 10
163.4245240449
 20
138.4502980477
 30
0.0
 11
163.4245240449
 21
144.0697414641
 31
0.0
  0
SPLINE
  5
1B9
330
1F
100
AcDbEntity
  8
0
  6
Continuous
 62
     7
370
    15
100
AcDbSpline
210
0.0
220
0.0
230
1.0
 70
     8
 71
     3
 72
    12
 73
     8
 74
     0
 42
0.000000001
 43
0.00000001
 40
0.0
 40
0.0
 40
0.0
 40
0.0
 40
0.0700425063434128
 40
0.2998026679871671
 40
0.5308245239749451
 40
0.7650221760328637
 40
1.0
 40
1.0
 40
1.0
 40
1.0
 10
166.7004166548955
 20
144.6502980477172
 30
0.0
 10
166.6227745096346
 20
144.6496407977749
 30
0.0
 10
166.2904431366915
 20
144.6468275733982
 30
0.0
 10
165.7024950832866
 20
144.6032881369816
 30
0.0
 10
164.9388101303516
 20
144.4830870882587
 30
0.0
 10
164.1774165332257
 20
144.306416758348
 30
0.0
 10
163.6757662652962
 20
144.1487206375804
 30
0.0
 10
163.4245240449029
 20
144.0697414641164
 30
0.0
  0
SPLINE
  5
1BA
330
1F
100
AcDbEntity
  8
0
  6
Continuous
 62
     7
370
    15
100
AcDbSpline
210
0.0
220
0.0
230
1.0
 70
     8
 71
     3
 72
    11
 73
     7
 74
     0
 42
0.000000001
 43
0.00000001
 40
0.0
 40
0.0
 40
0.0
 40
0.0
 40
0.2472686137512655
 40
0.4953625653849116
 40
0.7468740051198239
 40
1.0
 40
1.0
 40
1.0
 40
1.0
 10
169.9763092648882
 20
144.0697414641164
 30
0.0
 10
169.7118799917721
 20
144.1527283529607
 30
0.0
 10
169.1821388284824
 20
144.3189791258654
 30
0.0
 10
168.3691248357086
 20
144.5014177774357
 30
0.0
 10
167.5406428175522
 20
144.6264450113077
 30
0.0
 10
166.9810887948647
 20
144.6423300944787
 30
0.0
 10
166.7004166548955
 20
144.6502980477172
 30
0.0
  0
LINE
  5
1BB
330
1F
100
AcDbEntity
  8
0
  6
Continuous
 62
     7
370
    15
100
AcDbLine
 10
169.9763092649
 20
138.4502980477
 30
0.0
 11
169.9763092649
 21
144.0697414641
 31
0.0
  0
SPLINE
  5
1BC
330
1F
100
AcDbEntity
  8
0
  6
Continuous
 62
     7
370
    15
100
AcDbSpline
210
0.0
220
0.0
230
1.0
 70
     8
 71
     3
 72
    11
 73
     7
 74
     0
 42
0.000000001
 43
0.00000001
 40
0.0
 40
0.0
 40
0.0
 40
0.0
 40
0.2472686137512646
 40
0.4953625653849101
 40
0.7468740051198235
 40
1.0
 40
1.0
 40
1.0
 40
1.0
 10
163.4245240449029
 20
144.0697414641164
 30
0.0
 10
163.1643260497519
 20
144.1527283529607
 30
0.0
 10
162.6430615656323
 20
144.3189791258654
 30
0.0
 10
161.8430570560839
 20
144.5014177774357
 30
0.0
 10
161.0278320335187
 20
144.6264450113077
 30
0.0
 10
160.4772317419312
 20
144.6423300944787
 30
0.0
 10
160.2010507909566
 20
144.6502980477172
 30
0.0
  0
LINE
  5
1BD
330
1F
100
AcDbEntity
  8
0
  6
Continuous
 62
     7
370
    15
100
AcDbLine
 10
166.7004166549
 20
144.6502980477
 30
0.0
 11
160.201050791
 21
144.6502980477
 31
0.0
  0
LINE
  5
1BE
330
1F
100
AcDbEntity
  8
0
  6
Continuous
 62
     7
370
    15
100
AcDbLine
 10
156.977577537
 20
138.4502980477
 30
0.0
 11
160.201050791
 21
138.4502980477
 31
0.0
  0
LINE
  5
1BF
330
1F
100
AcDbEntity
  8
0
  6
Continuous
 62
     7
370
    15
100
AcDbLine
 10
156.977577537
 20
138.4502980477
 30
0.0
 11
156.977577537
 21
144.0697414641
 31
0.0
  0
SPLINE
  5
1C0
330
1F
100
AcDbEntity
  8
0
  6
Continuous
 62
     7
370
    15
100
AcDbSpline
210
0.0
220
0.0
230
1.0
 70
     8
 71
     3
 72
    12
 73
     8
 74
     0
 42
0.000000001
 43
0.00000001
 40
0.0
 40
0.0
 40
0.0
 40
0.0
 40
0.0700425063434112
 40
0.2998026679871661
 40
0.5308245239749442
 40
0.7650221760328633
 40
1.0
 40
1.0
 40
1.0
 40
1.0
 10
160.2010507909566
 20
144.6502980477172
 30
0.0
 10
160.1246510402858
 20
144.6496407977749
 30
0.0
 10
159.7976374840839
 20
144.6468275733982
 30
0.0
 10
159.2190975102522
 20
144.6032881369816
 30
0.0
 10
158.4676326994956
 20
144.4830870882587
 30
0.0
 10
157.7184225793058
 20
144.306416758348
 30
0.0
 10
157.2247994927085
 20
144.1487206375804
 30
0.0
 10
156.9775775370103
 20
144.0697414641164
 30
0.0
  0
LINE
  5
1C1
330
1F
100
AcDbEntity
  8
0
  6
Continuous
 62
     7
370
    15
100
AcDbLine
 10
160.201050791
 20
138.4502980477
 30
0.0
 11
163.4245240449
 21
138.4502980477
 31
0.0
  0
LINE
  5
1C2
330
1F
100
AcDbEntity
  8
0
  6
Continuous
 62
     7
370
    15
100
AcDbLine
 10
167.779362757
 20
137.8502980477
 30
0.0
 11
159.279362757
 21
137.8502980477
 31
0.0
  0
SPLINE
  5
1C3
330
1F
100
AcDbEntity
  8
0
  6
Continuous
 62
     7
370
    15
100
AcDbSpline
210
0.0
220
0.0
230
1.0
 70
     8
 71
     3
 72
    10
 73
     6
 74
     0
 42
0.000000001
 43
0.00000001
 40
0.0
 40
0.0
 40
0.0
 40
0.0
 40
0.257243261884767
 40
0.6263798857723065
 40
1.0
 40
1.0
 40
1.0
 40
1.0
 10
169.9763092648882
 20
144.0697414641164
 30
0.0
 10
169.9807112103205
 20
144.1552944526602
 30
0.0
 10
169.9914298198456
 20
144.3636134997712
 30
0.0
 10
170.0089240939466
 20
144.5967939478847
 30
0.0
 10
170.0221005995635
 20
144.6323917216866
 30
0.0
 10
170.0287286209345
 20
144.6502980477172
 30
0.0
  0
LINE
  5
1C4
330
1F
100
AcDbEntity
  8
0
  6
Continuous
 62
     7
370
    15
100
AcDbLine
 10
170.0287286209
 20
144.6502980477
 30
0.0
 11
166.7004166549
 21
144.6502980477
 31
0.0
  0
SPLINE
  5
1C5
330
1F
100
AcDbEntity
  8
0
  6
Continuous
 62
     7
370
    15
100
AcDbSpline
210
0.0
220
0.0
230
1.0
 70
     8
 71
     3
 72
    10
 73
     6
 74
     0
 42
0.000000001
 43
0.00000001
 40
0.0
 40
0.0
 40
0.0
 40
0.0
 40
0.257243261884767
 40
0.6263798857723063
 40
1.0
 40
1.0
 40
1.0
 40
1.0
 10
156.9775775370103
 20
144.0697414641164
 30
0.0
 10
156.9819794824426
 20
144.1552944526602
 30
0.0
 10
156.9926980919677
 20
144.3636134997712
 30
0.0
 10
157.0101923660687
 20
144.5967939478847
 30
0.0
 10
157.0233688716856
 20
144.6323917216866
 30
0.0
 10
157.0299968930566
 20
144.6502980477172
 30
0.0
  0
LINE
  5
1C6
330
1F
100
AcDbEntity
  8
0
  6
Continuous
 62
     7
370
    15
100
AcDbLine
 10
160.201050791
 20
144.6502980477
 30
0.0
 11
157.0299968931
 21
144.6502980477
 31
0.0
  0
SPLINE
  5
1C7
330
1F
100
AcDbEntity
  8
0
  6
Continuous
 62
     7
370
    15
100
AcDbSpline
210
0.0
220
0.0
230
1.0
 70
     8
 71
     3
 72
    10
 73
     6
 74
     0
 42
0.000000001
 43
0.00000001
 40
0.0
 40
0.0
 40
0.0
 40
0.0
 40
0.2684065359321948
 40
0.6323728964502887
 40
1.0
 40
1.0
 40
1.0
 40
1.0
 10
170.0287286209345
 20
144.6502980477172
 30
0.0
 10
170.0334890686301
 20
144.6408655672184
 30
0.0
 10
170.0447048092873
 20
144.6186423937288
 30
0.0
 10
170.0623008511593
 20
144.4277633583979
 30
0.0
 10
170.0748446794625
 20
144.1894795366011
 30
0.0
 10
170.0811479769808
 20
144.0697414641164
 30
0.0
  0
LINE
  5
1C8
330
1F
100
AcDbEntity
  8
0
  6
Continuous
 62
     7
370
    15
100
AcDbLine
 10
170.081147977
 20
138.4502980477
 30
0.0
 11
170.081147977
 21
144.0697414641
 31
0.0
  0
LINE
  5
1C9
330
1F
100
AcDbEntity
  8
0
  6
Continuous
 62
     7
370
    15
100
AcDbLine
 10
170.081147977
 20
138.4502980477
 30
0.0
 11
170.0287286209
 21
138.4502980477
 31
0.0
  0
LINE
  5
1CA
330
1F
100
AcDbEntity
  8
0
  6
Continuous
 62
     7
370
    15
100
AcDbLine
 10
170.0287286209
 20
138.4502980477
 30
0.0
 11
169.9763092649
 21
138.4502980477
 31
0.0
  0
LINE
  5
1CB
330
1F
100
AcDbEntity
  8
0
  6
Continuous
 62
     7
370
    15
100
AcDbLine
 10
164.029362757
 20
132.9502980477
 30
0.0
 11
164.029362757
 21
130.6502980477
 31
0.0
  0
LINE
  5
1CC
330
1F
100
AcDbEntity
  8
0
  6
Continuous
 62
     7
370
    15
100
AcDbLine
 10
163.029362757
 20
132.9502980477
 30
0.0
 11
157.179362757
 21
132.9502980477
 31
0.0
  0
LINE
  5
1CD
330
1F
100
AcDbEntity
  8
0
  6
Continuous
 62
     7
370
    15
100
AcDbLine
 10
169.879362757
 20
132.9502980477
 30
0.0
 11
164.029362757
 21
132.9502980477
 31
0.0
  0
LINE
  5
1CE
330
1F
100
AcDbEntity
  8
0
  6
Continuous
 62
     7
370
    15
100
AcDbLine
 10
163.029362757
 20
130.6502980477
 30
0.0
 11
163.029362757
 21
132.9502980477
 31
0.0
  0
LINE
  5
1CF
330
1F
100
AcDbEntity
  8
0
  6
Continuous
 62
     7
370
    15
100
AcDbLine
 10
169.2329679631
 20
130.6502980477
 30
0.0
 11
157.029362757
 21
130.6502980477
 31
0.0
  0
LINE
  5
1D0
330
1F
100
AcDbEntity
  8
0
  6
Continuous
 62
     7
370
    15
100
AcDbLine
 10
170.029362757
 20
130.6502980477
 30
0.0
 11
169.2329679631
 21
130.6502980477
 31
0.0
  0
LINE
  5
1D1
330
1F
100
AcDbEntity
  8
0
  6
Continuous
 62
     7
370
    15
100
AcDbLine
 10
168.5309857839
 20
122.6502980477
 30
0.0
 11
157.829362757
 21
122.6502980477
 31
0.0
  0
LINE
  5
1D2
330
1F
100
AcDbEntity
  8
0
  6
Continuous
 62
     7
370
    15
100
AcDbLine
 10
169.229362757
 20
122.6502980477
 30
0.0
 11
168.5309857839
 21
122.6502980477
 31
0.0
  0
LINE
  5
1D3
330
1F
100
AcDbEntity
  8
0
  6
Continuous
 62
     7
370
    15
100
AcDbLine
 10
166.4333752846
 20
146.6502980477
 30
0.0
 11
160.219862757
 21
146.6502980477
 31
0.0
  0
LINE
  5
1D4
330
1F
100
AcDbEntity
  8
0
  6
Continuous
 62
     7
370
    15
100
AcDbLine
 10
166.838862757
 20
146.6502980477
 30
0.0
 11
166.4333752846
 21
146.6502980477
 31
0.0
  0
LINE
  5
1D5
330
1F
100
AcDbEntity
  8
0
  6
Continuous
 62
     7
370
    15
100
AcDbLine
 10
167.0392736531
 20
145.9597980477
 30
0.0
 11
159.529362757
 21
145.9597980477
 31
0.0
  0
LINE
  5
1D6
330
1F
100
AcDbEntity
  8
0
  6
Continuous
 62
     7
370
    15
100
AcDbLine
 10
167.529362757
 20
145.9597980477
 30
0.0
 11
167.0392736531
 21
145.9597980477
 31
0.0
  0
LINE
  5
1D7
330
1F
100
AcDbEntity
  8
0
  6
Continuous
 62
     7
370
    15
100
AcDbLine
 10
133.529362757
 20
134.5502980477
 30
0.0
 11
133.529362757
 21
146.5502980477
 31
0.0
  0
LINE
  5
1D8
330
1F
100
AcDbEntity
  8
0
  6
Continuous
 62
     7
370
    15
100
AcDbLine
 10
156.829362757
 20
146.5502980477
 30
0.0
 11
133.529362757
 21
146.5502980477
 31
0.0
  0
LINE
  5
1D9
330
1F
100
AcDbEntity
  8
0
  6
Continuous
 62
     7
370
    15
100
AcDbLine
 10
156.829362757
 20
137.8502980477
 30
0.0
 11
156.829362757
 21
146.5502980477
 31
0.0
  0
LINE
  5
1DA
330
1F
100
AcDbEntity
  8
0
  6
Continuous
 62
     7
370
    15
100
AcDbLine
 10
156.829362757
 20
137.8502980477
 30
0.0
 11
159.279362757
 21
137.8502980477
 31
0.0
  0
LINE
  5
1DB
330
1F
100
AcDbEntity
  8
0
  6
Continuous
 62
     7
370
    15
100
AcDbLine
 10
159.279362757
 20
134.5502980477
 30
0.0
 11
159.279362757
 21
137.8502980477
 31
0.0
  0
LINE
  5
1DC
330
1F
100
AcDbEntity
  8
0
  6
Continuous
 62
     7
370
    15
100
AcDbLine
 10
159.279362757
 20
134.5502980477
 30
0.0
 11
133.529362757
 21
134.5502980477
 31
0.0
  0
LINE
  5
1DD
330
1F
100
AcDbEntity
  8
0
  6
Continuous
 62
     7
370
    15
100
AcDbLine
 10
170.229362757
 20
137.8502980477
 30
0.0
 11
170.229362757
 21
146.5502980477
 31
0.0
  0
LINE
  5
1DE
330
1F
100
AcDbEntity
  8
0
  6
Continuous
 62
     7
370
    15
100
AcDbLine
 10
193.529362757
 20
134.5502980477
 30
0.0
 11
193.529362757
 21
146.5502980477
 31
0.0
  0
LINE
  5
1DF
330
1F
100
AcDbEntity
  8
0
  6
Continuous
 62
     7
370
    15
100
AcDbLine
 10
193.529362757
 20
134.5502980477
 30
0.0
 11
167.779362757
 21
134.5502980477
 31
0.0
  0
LINE
  5
1E0
330
1F
100
AcDbEntity
  8
0
  6
Continuous
 62
     7
370
    15
100
AcDbLine
 10
167.779362757
 20
134.5502980477
 30
0.0
 11
167.779362757
 21
137.8502980477
 31
0.0
  0
LINE
  5
1E1
330
1F
100
AcDbEntity
  8
0
  6
Continuous
 62
     7
370
    15
100
AcDbLine
 10
167.779362757
 20
137.8502980477
 30
0.0
 11
170.229362757
 21
137.8502980477
 31
0.0
  0
LINE
  5
1E2
330
1F
100
AcDbEntity
  8
0
  6
Continuous
 62
     7
370
    15
100
AcDbLine
 10
193.529362757
 20
146.5502980477
 30
0.0
 11
170.229362757
 21
146.5502980477
 31
0.0
  0
LINE
  5
1E3
330
1F
100
AcDbEntity
  8
0
  6
Continuous
 62
     7
370
    15
100
AcDbLine
 10
167.779362757
 20
134.5502980477
 30
0.0
 11
167.529362757
 21
134.5502980477
 31
0.0
  0
LINE
  5
1E4
330
1F
100
AcDbEntity
  8
0
  6
Continuous
 62
     7
370
    15
100
AcDbLine
 10
159.529362757
 20
134.5502980477
 30
0.0
 11
159.279362757
 21
134.5502980477
 31
0.0
  0
LINE
  5
1E5
330
1F
100
AcDbEntity
  8
0
  6
Continuous
 62
     7
370
    15
100
AcDbLine
 10
170.229362757
 20
146.5502980477
 30
0.0
 11
166.938862757
 21
146.5502980477
 31
0.0
  0
LINE
  5
1E6
330
1F
100
AcDbEntity
  8
0
  6
Continuous
 62
     7
370
    15
100
AcDbLine
 10
160.119862757
 20
146.5502980477
 30
0.0
 11
156.829362757
 21
146.5502980477
 31
0.0
  0
LINE
  5
1E7
330
1F
100
AcDbEntity
  8
0
  6
Continuous
 62
     8
370
    15
100
AcDbLine
 10
169.2329679631
 20
123.4502980477
 30
0.0
 11
170.029362757
 21
123.4502980477
 31
0.0
  0
LINE
  5
1E8
330
1F
100
AcDbEntity
  8
0
  6
Continuous
 62
     8
370
    15
100
AcDbLine
 10
157.029362757
 20
123.4502980477
 30
0.0
 11
169.2329679631
 21
123.4502980477
 31
0.0
  0
LINE
  5
1E9
330
1F
100
AcDbEntity
  8
0
  6
Continuous
 62
     8
370
    15
100
AcDbLine
 10
163.029362757
 20
131.0502980477
 30
0.0
 11
164.029362757
 21
131.0502980477
 31
0.0
  0
LINE
  5
1EA
330
1F
100
AcDbEntity
  8
0
  6
Continuous
 62
     7
370
    15
100
AcDbLine
 10
251.6575350103
 20
198.2240689659
 30
0.0
 11
253.9575350103
 21
198.2240689659
 31
0.0
  0
LINE
  5
1EB
330
1F
100
AcDbEntity
  8
0
  6
Continuous
 62
     7
370
    15
100
AcDbLine
 10
261.1575350103
 20
211.0740689659
 30
0.0
 11
253.9575350103
 21
211.0740689659
 31
0.0
  0
LINE
  5
1EC
330
1F
100
AcDbEntity
  8
0
  6
Continuous
 62
     7
370
    15
100
AcDbLine
 10
253.9575350103
 20
198.0740689659
 30
0.0
 11
261.1575350103
 21
198.0740689659
 31
0.0
  0
ARC
  5
1ED
330
1F
100
AcDbEntity
  8
0
  6
Continuous
 62
     7
370
    15
100
AcDbCircle
 10
261.1575350103
 20
210.2740689659
 30
0.0
 40
0.8000000000000114
100
AcDbArc
 50
0.0
 51
90.0
  0
ARC
  5
1EE
330
1F
100
AcDbEntity
  8
0
  6
Continuous
 62
     7
370
    15
100
AcDbCircle
 10
261.1575350103
 20
198.8740689659
 30
0.0
 40
0.8000000000000114
100
AcDbArc
 50
270.0
 51
0.0
  0
LINE
  5
1EF
330
1F
100
AcDbEntity
  8
0
  6
Continuous
 62
     7
370
    15
100
AcDbLine
 10
251.6575350103
 20
208.5740689659
 30
0.0
 11
250.0575350103
 21
208.5740689659
 31
0.0
  0
LINE
  5
1F0
330
1F
100
AcDbEntity
  8
0
  6
Continuous
 62
     7
370
    15
100
AcDbLine
 10
250.0575350103
 20
200.5740689659
 30
0.0
 11
251.6575350103
 21
200.5740689659
 31
0.0
  0
LINE
  5
1F1
330
1F
100
AcDbEntity
  8
0
  6
Continuous
 62
     7
370
    15
100
AcDbLine
 10
238.0575350103
 20
207.9835689659
 30
0.0
 11
237.9575350103
 21
207.8835689659
 31
0.0
  0
LINE
  5
1F2
330
1F
100
AcDbEntity
  8
0
  6
Continuous
 62
     7
370
    15
100
AcDbLine
 10
237.9575350103
 20
201.2645689659
 30
0.0
 11
238.0575350103
 21
201.1645689659
 31
0.0
  0
LINE
  5
1F3
330
1F
100
AcDbEntity
  8
0
  6
Continuous
 62
     7
370
    15
100
AcDbLine
 10
246.5575350103
 20
188.9948211561
 30
0.0
 11
246.5575350103
 21
189.7379002863
 31
0.0
  0
LINE
  5
1F4
330
1F
100
AcDbEntity
  8
0
  6
Continuous
 62
     7
370
    15
100
AcDbLine
 10
241.5575350103
 20
189.7379002863
 30
0.0
 11
241.5575350103
 21
188.9948211561
 31
0.0
  0
LINE
  5
1F5
330
1F
100
AcDbEntity
  8
0
  6
Continuous
 62
     7
370
    15
100
AcDbLine
 10
241.5575350103
 20
188.9948211561
 30
0.0
 11
242.0025350103
 21
188.7379002863
 31
0.0
  0
LINE
  5
1F6
330
1F
100
AcDbEntity
  8
0
  6
Continuous
 62
     7
370
    15
100
AcDbLine
 10
246.1125350103
 20
188.7379002863
 30
0.0
 11
246.5575350103
 21
188.9948211561
 31
0.0
  0
LINE
  5
1F7
330
1F
100
AcDbEntity
  8
0
  6
Continuous
 62
     7
370
    15
100
AcDbLine
 10
251.6575350103
 20
210.9043533197
 30
0.0
 11
251.6575350103
 21
198.2240689659
 31
0.0
  0
LINE
  5
1F8
330
1F
100
AcDbEntity
  8
0
  6
Continuous
 62
     7
370
    15
100
AcDbLine
 10
253.9575350103
 20
210.9043533197
 30
0.0
 11
251.6575350103
 21
210.9043533197
 31
0.0
  0
LINE
  5
1F9
330
1F
100
AcDbEntity
  8
0
  6
Continuous
 62
     7
370
    15
100
AcDbLine
 10
253.9575350103
 20
211.0740689659
 30
0.0
 11
253.9575350103
 21
198.0740689659
 31
0.0
  0
LINE
  5
1FA
330
1F
100
AcDbEntity
  8
0
  6
Continuous
 62
     7
370
    15
100
AcDbLine
 10
261.9575350103
 20
210.2740689659
 30
0.0
 11
261.9575350103
 21
198.8740689659
 31
0.0
  0
LINE
  5
1FB
330
1F
100
AcDbEntity
  8
0
  6
Continuous
 62
     7
370
    15
100
AcDbLine
 10
237.9575350103
 20
207.8835689659
 30
0.0
 11
237.9575350103
 21
201.2645689659
 31
0.0
  0
LINE
  5
1FC
330
1F
100
AcDbEntity
  8
0
  6
Continuous
 62
     7
370
    15
100
AcDbLine
 10
246.5575350103
 20
188.9948211561
 30
0.0
 11
241.5575350103
 21
188.9948211561
 31
0.0
  0
LINE
  5
1FD
330
1F
100
AcDbEntity
  8
0
  6
Continuous
 62
     7
370
    15
100
AcDbLine
 10
246.1125350103
 20
188.7379002863
 30
0.0
 11
242.0025350103
 21
188.7379002863
 31
0.0
  0
LINE
  5
1FE
330
1F
100
AcDbEntity
  8
0
  6
Continuous
 62
     7
370
    15
100
AcDbLine
 10
250.0575350103
 20
214.7379002863
 30
0.0
 11
250.0575350103
 21
189.7379002863
 31
0.0
  0
LINE
  5
1FF
330
1F
100
AcDbEntity
  8
0
  6
Continuous
 62
     7
370
    15
100
AcDbLine
 10
250.0575350103
 20
189.7379002863
 30
0.0
 11
238.0575350103
 21
189.7379002863
 31
0.0
  0
LINE
  5
200
330
1F
100
AcDbEntity
  8
0
  6
Continuous
 62
     7
370
    15
100
AcDbLine
 10
238.0575350103
 20
214.7379002863
 30
0.0
 11
238.0575350103
 21
189.7379002863
 31
0.0
  0
LINE
  5
201
330
1F
100
AcDbEntity
  8
0
  6
Continuous
 62
     7
370
    15
100
AcDbLine
 10
250.0575350103
 20
214.7379002863
 30
0.0
 11
238.0575350103
 21
214.7379002863
 31
0.0
  0
LINE
  5
202
330
1F
100
AcDbEntity
  8
0
  6
Continuous
 62
     8
370
    15
100
AcDbLine
 10
261.1575350103
 20
198.0740689659
 30
0.0
 11
261.1575350103
 21
211.0740689659
 31
0.0
  0
ENDSEC
  0
SECTION
  2
OBJECTS
  0
DICTIONARY
  5
C
330
0
100
AcDbDictionary
281
     1
  3
ACAD_GROUP
350
D
  3
ACAD_LAYOUT
350
1A
  3
ACAD_MLINESTYLE
350
17
  3
ACAD_PLOTSETTINGS
350
19
  3
ACAD_PLOTSTYLENAME
350
E
  3
ACAD_SCALELIST
350
47
  0
DICTIONARY
  5
D
102
{ACAD_REACTORS
330
C
102
}
330
C
100
AcDbDictionary
281
     1
  0
DICTIONARY
  5
1A
102
{ACAD_REACTORS
330
C
102
}
330
C
100
AcDbDictionary
281
     1
  3
Layout1
350
1E
  3
Layout2
350
26
  3
Model
350
22
  0
DICTIONARY
  5
17
102
{ACAD_REACTORS
330
C
102
}
330
C
100
AcDbDictionary
281
     1
  3
Standard
350
18
  0
DICTIONARY
  5
19
102
{ACAD_REACTORS
330
C
102
}
330
C
100
AcDbDictionary
281
     1
  0
ACDBDICTIONARYWDFLT
  5
E
102
{ACAD_REACTORS
330
C
102
}
330
C
100
AcDbDictionary
281
     1
  3
Normal
350
F
100
AcDbDictionaryWithDefault
340
F
  0
DICTIONARY
  5
47
102
{ACAD_REACTORS
330
C
102
}
330
C
100
AcDbDictionary
281
     1
  3
A0
350
48
  3
A1
350
49
  3
A2
350
4A
  3
A3
350
4B
  3
A4
350
4C
  3
A5
350
4D
  3
A6
350
4E
  3
A7
350
4F
  3
A8
350
50
  3
A9
350
51
  3
B0
350
52
  3
B1
350
53
  3
B2
350
54
  3
B3
350
55
  3
B4
350
56
  3
B5
350
57
  3
B6
350
58
  3
B7
350
59
  3
B8
350
5A
  3
B9
350
5B
  3
C0
350
5C
  3
C1
350
5D
  3
C2
350
5E
  3
C3
350
5F
  3
C4
350
60
  3
C5
350
61
  3
C6
350
62
  3
C7
350
63
  3
C8
350
64
  3
C9
350
65
  3
D0
350
66
  3
D1
350
67
  3
D2
350
68
  0
LAYOUT
  5
1E
102
{ACAD_REACTORS
330
1A
102
}
330
1A
100
AcDbPlotSettings
  1

  2
none_device
  4

  6

 40
0.0
 41
0.0
 42
0.0
 43
0.0
 44
0.0
 45
0.0
 46
0.0
 47
0.0
 48
0.0
 49
0.0
140
0.0
141
0.0
142
1.0
143
1.0
 70
   688
 72
     1
 73
     0
 74
     5
  7

 75
    16
147
1.0
148
0.0
149
0.0
100
AcDbLayout
  1
Layout1
 70
     1
 71
     1
 10
0.0
 20
0.0
 11
420.0
 21
297.0
 12
0.0
 22
0.0
 32
0.0
 14
1.0000000000E+20
 24
1.0000000000E+20
 34
1.0000000000E+20
 15
-1.0000000000E+20
 25
-1.0000000000E+20
 35
-1.0000000000E+20
146
0.0
 13
0.0
 23
0.0
 33
0.0
 16
1.0
 26
0.0
 36
0.0
 17
0.0
 27
1.0
 37
0.0
 76
     0
330
1B
  0
LAYOUT
  5
26
102
{ACAD_REACTORS
330
1A
102
}
330
1A
100
AcDbPlotSettings
  1

  2
none_device
  4

  6

 40
0.0
 41
0.0
 42
0.0
 43
0.0
 44
0.0
 45
0.0
 46
0.0
 47
0.0
 48
0.0
 49
0.0
140
0.0
141
0.0
142
1.0
143
1.0
 70
   688
 72
     1
 73
     0
 74
     5
  7

 75
    16
147
1.0
148
0.0
149
0.0
100
AcDbLayout
  1
Layout2
 70
     1
 71
     2
 10
0.0
 20
0.0
 11
0.0
 21
0.0
 12
0.0
 22
0.0
 32
0.0
 14
0.0
 24
0.0
 34
0.0
 15
0.0
 25
0.0
 35
0.0
146
0.0
 13
0.0
 23
0.0
 33
0.0
 16
1.0
 26
0.0
 36
0.0
 17
0.0
 27
1.0
 37
0.0
 76
     0
330
23
  0
LAYOUT
  5
22
102
{ACAD_REACTORS
330
1A
102
}
330
1A
100
AcDbPlotSettings
  1

  2
none_device
  4
Letter_(8.50_x_11.00_Inches)
  6

 40
6.35
 41
6.35
 42
6.35000508
 43
6.35000508
 44
215.9
 45
279.4
 46
0.0
 47
0.0
 48
0.0
 49
0.0
140
0.0
141
0.0
142
1.0
143
1.0
 70
  1712
 72
     1
 73
     0
 74
     0
  7

 75
     0
147
1.0
148
0.0
149
0.0
100
AcDbLayout
  1
Model
 70
     1
 71
     0
 10
0.0
 20
0.0
 11
431.8
 21
279.4
 12
0.0
 22
0.0
 32
0.0
 14
0.0
 24
0.0
 34
0.0
 15
431.8
 25
279.4
 35
0.0
146
0.0
 13
0.0
 23
0.0
 33
0.0
 16
1.0
 26
0.0
 36
0.0
 17
0.0
 27
1.0
 37
0.0
 76
     0
330
1F
331
29
  0
MLINESTYLE
  5
18
102
{ACAD_REACTORS
330
17
102
}
330
17
100
AcDbMlineStyle
  2
Standard
 70
     0
  3

 62
   256
 51
90.0
 52
90.0
 71
     2
 49
0.5
 62
   256
  6
BYLAYER
 49
-0.5
 62
   256
  6
BYLAYER
  0
ACDBPLACEHOLDER
  5
F
102
{ACAD_REACTORS
330
E
102
}
330
E
  0
SCALE
  5
48
102
{ACAD_REACTORS
330
47
102
}
330
47
100
AcDbScale
 70
     0
300
1:1
140
1.0
141
1.0
290
     1
  0
SCALE
  5
49
102
{ACAD_REACTORS
330
47
102
}
330
47
100
AcDbScale
 70
     0
300
1:2
140
1.0
141
2.0
290
     0
  0
SCALE
  5
4A
102
{ACAD_REACTORS
330
47
102
}
330
47
100
AcDbScale
 70
     0
300
1:4
140
1.0
141
4.0
290
     0
  0
SCALE
  5
4B
102
{ACAD_REACTORS
330
47
102
}
330
47
100
AcDbScale
 70
     0
300
1:5
140
1.0
141
5.0
290
     0
  0
SCALE
  5
4C
102
{ACAD_REACTORS
330
47
102
}
330
47
100
AcDbScale
 70
     0
300
1:8
140
1.0
141
8.0
290
     0
  0
SCALE
  5
4D
102
{ACAD_REACTORS
330
47
102
}
330
47
100
AcDbScale
 70
     0
300
1:10
140
1.0
141
10.0
290
     0
  0
SCALE
  5
4E
102
{ACAD_REACTORS
330
47
102
}
330
47
100
AcDbScale
 70
     0
300
1:16
140
1.0
141
16.0
290
     0
  0
SCALE
  5
4F
102
{ACAD_REACTORS
330
47
102
}
330
47
100
AcDbScale
 70
     0
300
1:20
140
1.0
141
20.0
290
     0
  0
SCALE
  5
50
102
{ACAD_REACTORS
330
47
102
}
330
47
100
AcDbScale
 70
     0
300
1:30
140
1.0
141
30.0
290
     0
  0
SCALE
  5
51
102
{ACAD_REACTORS
330
47
102
}
330
47
100
AcDbScale
 70
     0
300
1:40
140
1.0
141
40.0
290
     0
  0
SCALE
  5
52
102
{ACAD_REACTORS
330
47
102
}
330
47
100
AcDbScale
 70
     0
300
1:50
140
1.0
141
50.0
290
     0
  0
SCALE
  5
53
102
{ACAD_REACTORS
330
47
102
}
330
47
100
AcDbScale
 70
     0
300
1:100
140
1.0
141
100.0
290
     0
  0
SCALE
  5
54
102
{ACAD_REACTORS
330
47
102
}
330
47
100
AcDbScale
 70
     0
300
2:1
140
2.0
141
1.0
290
     0
  0
SCALE
  5
55
102
{ACAD_REACTORS
330
47
102
}
330
47
100
AcDbScale
 70
     0
300
4:1
140
4.0
141
1.0
290
     0
  0
SCALE
  5
56
102
{ACAD_REACTORS
330
47
102
}
330
47
100
AcDbScale
 70
     0
300
8:1
140
8.0
141
1.0
290
     0
  0
SCALE
  5
57
102
{ACAD_REACTORS
330
47
102
}
330
47
100
AcDbScale
 70
     0
300
10:1
140
10.0
141
1.0
290
     0
  0
SCALE
  5
58
102
{ACAD_REACTORS
330
47
102
}
330
47
100
AcDbScale
 70
     0
300
100:1
140
100.0
141
1.0
290
     0
  0
SCALE
  5
59
102
{ACAD_REACTORS
330
47
102
}
330
47
100
AcDbScale
 70
     0
300
1/128" = 1'-0"
140
0.0078125
141
12.0
290
     0
  0
SCALE
  5
5A
102
{ACAD_REACTORS
330
47
102
}
330
47
100
AcDbScale
 70
     0
300
1/64" = 1'-0"
140
0.015625
141
12.0
290
     0
  0
SCALE
  5
5B
102
{ACAD_REACTORS
330
47
102
}
330
47
100
AcDbScale
 70
     0
300
1/32" = 1'-0"
140
0.03125
141
12.0
290
     0
  0
SCALE
  5
5C
102
{ACAD_REACTORS
330
47
102
}
330
47
100
AcDbScale
 70
     0
300
1/16" = 1'-0"
140
0.0625
141
12.0
290
     0
  0
SCALE
  5
5D
102
{ACAD_REACTORS
330
47
102
}
330
47
100
AcDbScale
 70
     0
300
3/32" = 1'-0"
140
0.09375
141
12.0
290
     0
  0
SCALE
  5
5E
102
{ACAD_REACTORS
330
47
102
}
330
47
100
AcDbScale
 70
     0
300
1/8" = 1'-0"
140
0.125
141
12.0
290
     0
  0
SCALE
  5
5F
102
{ACAD_REACTORS
330
47
102
}
330
47
100
AcDbScale
 70
     0
300
3/16" = 1'-0"
140
0.1875
141
12.0
290
     0
  0
SCALE
  5
60
102
{ACAD_REACTORS
330
47
102
}
330
47
100
AcDbScale
 70
     0
300
1/4" = 1'-0"
140
0.25
141
12.0
290
     0
  0
SCALE
  5
61
102
{ACAD_REACTORS
330
47
102
}
330
47
100
AcDbScale
 70
     0
300
3/8" = 1'-0"
140
0.375
141
12.0
290
     0
  0
SCALE
  5
62
102
{ACAD_REACTORS
330
47
102
}
330
47
100
AcDbScale
 70
     0
300
1/2" = 1'-0"
140
0.5
141
12.0
290
     0
  0
SCALE
  5
63
102
{ACAD_REACTORS
330
47
102
}
330
47
100
AcDbScale
 70
     0
300
3/4" = 1'-0"
140
0.75
141
12.0
290
     0
  0
SCALE
  5
64
102
{ACAD_REACTORS
330
47
102
}
330
47
100
AcDbScale
 70
     0
300
1" = 1'-0"
140
1.0
141
12.0
290
     0
  0
SCALE
  5
65
102
{ACAD_REACTORS
330
47
102
}
330
47
100
AcDbScale
 70
     0
300
1-1/2" = 1'-0"
140
1.5
141
12.0
290
     0
  0
SCALE
  5
66
102
{ACAD_REACTORS
330
47
102
}
330
47
100
AcDbScale
 70
     0
300
3" = 1'-0"
140
3.0
141
12.0
290
     0
  0
SCALE
  5
67
102
{ACAD_REACTORS
330
47
102
}
330
47
100
AcDbScale
 70
     0
300
6" = 1'-0"
140
6.0
141
12.0
290
     0
  0
SCALE
  5
68
102
{ACAD_REACTORS
330
47
102
}
330
47
100
AcDbScale
 70
     0
300
1'-0" = 1'-0"
140
12.0
141
12.0
290
     0
  0
ENDSEC
  0
EOF
